Oops, an error
Loading. Please wait.

Sophomore Slump Or Comeback Of The Year tab

version 1
version 1

Whole song

27,017 views 15 this week
6 commentsread comments
1 2 3 4 5
x 13
add to favorites
×
Save as Personal and add changes to this tab that will be seen only by you. Learn more ›
×
You can save this tab as Personal to edit and correct it or add notes. All changes will be seen only by you. Learn more »
launch autoscroll
font size
0
reset
how to read this tab
guitar tuner
edit
Autoscroll
slow
fast
+/-
esc
set tempo
stop
Author
Song: Sophomore Slump or Comeback of the Year
Artist: Fall Out Boy
Tabbed By: riotchic108@yahoo.com

*F = 14*
*W = 12*
*E = 11*
*T = 10*

[Chorus]
Guitar 1
Are We Growing Up....
e|-----------------------------------------------------|
B|-----------------------------------------------------|
G|-----------------------------------------------------|
D|--4-4-4-4-4-4-4-4--4-4-4-4-4-4-4-4-------------------|
A|--2-2-2-2-2-2-2-2--1-1-1-1-1-1-1-1--2-2-2-2-2-2-2-2--|
E|------------------------------------0-0-0-0-0-0-0-0--|
Pm ....................................................

e|-----------------------------------------------------|
B|-----------------------------------------------------|
G|-----------------------------------------------------|
D|--------------------4-4-4-4-4-4-4-4--4-4-4-4-4-4-4-4-|
A|--6-6-6-6--2-2-2-2--2-2-2-2-2-2-2-2--1-1-1-1-1-1-1-1-|
E|--4-4-4-4--0-0-0-0-----------------------------------|
Pm ....................................................

e|-----------------------------------------------------|
B|-----------------------------------------------------|
G|-----------------------------------------------------|
D|--9--------------------------------------------------|
A|--7--------------------------2-2-2-------------------|
E|--0--------------------------0-0-0-------------------|
   Hold                      Pm ....

[Verse] (play 4 times)
Guiar 1
We're The Therapists....
e|------------------------------------------------------------|
B|------------------------------------------------------------|
G|-----------------------4-4-4-4---------------------4-4-4-4--|
D|----6-6-4--2--2--4--4--4-4-4-4--6-6-4--2--2--4--4--4-4-4-4--|
A|----6-6-4--2--2--4--4--2-2-2-2--6-6-4--2--2--4--4--2-2-2-2--|
E|----4-4-2--0--0--2--2--2-2-2-2--4-4-2--0--0--2--2--2-2-2-2--|

Guitar 2
[Verse] (play 2 times)
Were The Chemists....
e|--7-7-7--7-7--7-7--7-7-7-7--7-7-7--7-7--6-6--7-7-7-7-|
B|--7-7-7--7-7--7-7--7-7-7-7--7-7-7--7-7--7-7--7-7-7-7-|
G|-----------------------------------------------------|
D|-----------------------------------------------------|
A|-----------------------------------------------------|
E|-----------------------------------------------------|

[Pre-Chorus]
Guitar 1
I'll Keep Singing This...
e|-----------------------------------------------------|
B|-----------------------------------------------------|
G|-----------------------------------------------------|
D|------------------------------------2-2-2-2-2-2-2-2--|
A|--2-2-2-2-2-2-2-2--4-4-4-4-4-4-4-4--4-4-4-4-4-4-4-4--|
E|--0-0-0-0-0-0-0-0--2-2-2-2-2-2-2-2-------------------|
Pm ....................................................

e|-----------------------------------------------------|
B|-----------------------------------------------------|
G|-----------------------------------------------------|
D|--4-4-4-4-4-4-4-4------------------------------------|
A|--2-2-2-2-2-2-2-2--2-2-2-2-2-2-2-2--4-4-4-4-4-4-4-4--|
E|-------------------0-0-0-0-0-0-0-0--2-2-2-2-2-2-2-2--|
Pm ....................................................

e|-----------------------------------------------------|
B|-----------------------------------------------------|
G|-----------------------------------------------------|
D|-----------------------4-4--4-4-4--------------------|
A|--2-2-2-2-2-2-2-2--4-4-4-4--4-4-4--------------------|
E|--0-0-0-0-0-0-0-0--2-2-2-2--2-2-2-0------------------|
Pm .....................

[Chorus]
Guitar 1
Are We Growing Up...
e|-----------------------------------------------------|
B|-----------------------------------------------------|
G|--4--4--4-4--4--3--3--3-3--3--8--8--8-8-8-8----------|
D|--4--4--4-4--4--4--4--4-4--4--9--9--9-9-9-9--6-6-----|
A|--2--2--2-2--2--1--1--1-1--1--7--7--7-7-7-7--6-6-----|
E|------------------------------0--0--0-0-0-0--4-4-----|

e|-----------------------------------------------------|
B|-----------------------------------------------------|
G|---------4--4-4--4-4-4-4--3-3-3-3--3-3-3-3--8-8-8----|
D|--6-/-2--4--4-4--4-4-4-4--4-4-4-4--4-4-4-4--9-9-9----|
A|--6-/-2--2--2-2--2-2-2-2--1-1-1-1--1-1-1-1--7-7-7----|
E|--4-/-0-------------------------------------0-0-0----|

e|-----------------------------------------------------|
B|-----------------------------------------------------|
G|--8-8-8-8--------------------------------------------|
D|--9-9-9-9--6--6-/-2-2-2-2----------------------------|
A|--7-7-7-7--6--6-/-2-2-2-2----------------------------|
E|--0-0-0-0--4--4-/-0-0-0-0----------------------------|

Guitar 2
[Chorus]
Are We Growing Up...
e|-----------------------------------------------------|
B|-----------------------------------------------------|
G|--8--8--8-8-8-8-/-E--E-E--E-E-E-E-/-8--8--8-4-4-6----|
D|--x--x--x-x-x-x-/-x--x-x--x-x-x-x-/-x--x--x-x-x-x----|
A|--6--6--6-6-6-6-/-9--9-9--9-9-9-9-/-6--6--6-6-2-4----|
E|-----------------------------------------------------|

e|-----------------------------------------------------|
B|-----------------------------------------------------|
G|--8-8--8-/-6-6-6-6--8-8-8-8-8-8-8-8--E-E-E-E-E-E-E-E-|
D|--x-x--x-/-x-x-x-x--x-x-x-x-x-x-x-x--x-x-x-x-x-x-x-x-|
A|--6-6--6-/-4-4-4-4--6-6-6-6-6-6-6-6--9-9-9-9-9-9-9-9-|
E|-----------------------------------------------------|

e|-----------------------------------------------------|
B|-----------------------------------------------------|
G|--8-8-8--8-8-4-6--8-8-8-9--6-6-6-6-------------------|
D|--x-x-x--x-x-x-x--x-x-x-x--x-x-x-x-------------------|
A|--6-6-6--6-6-2-4--6-6-6-7--4-4-4-4-------------------|
E|-----------------------------------------------------|

Thing Leading Into Verse
e|-----------------------------------------------------|
B|-----------------------------------------------------|
G|----------------------------4------------------------|
D|--6-6-4--2--2--4--4---------4------------------------|
A|--6-6-4--2--2--4--4--4-4-4--2------------------------|
E|--4-4-2--0--0--2--2--2-2-2--2------------------------|
Pm                     .....

[Verse] (play 4 times)
Guitar 3
And We Traveled...
e|------------------------------------------------------------|
B|------------------------------------------------------------|
G|--4-4-6--8--8--E--E--8-8-8-8--4-4-6--8--8--E--E--8-8-8-8----|
D|--x-x-x--x--x--x--x--x-x-x-x--x-x-x--x--x--x--x--x-x-x-x----|
A|--2-2-4--6--6--9--9--6-6-6-6--2-2-4--6--6--9--9--6-6-6-6----|
E|------------------------------------------------------------|

e|------------------------------------------------------------|
B|------------------------------------------------------------|
G|--4-4-6--8--8--E--E--8-8-8-8--4-4-6--8--8--E--E-------------|
D|--x-x-x--x--x--x--x--x-x-x-x--x-x-x--x--x--x--x-------------|
A|--2-2-4--6--6--9--9--6-6-6-6--2-2-4--6--6--9--9-------------|
E|-------------------------------------------------7-7-7-7----|
Pm                                                 .......

[Verse] (play 2 times)
Guitar 1
Were The Lifters
e|------------------------------------------------------------|
B|------------------------------------------------------------|
G|-----------------------4-4-4-4---------------------4-4-4-4--|
D|----6-6-4--2--2--4--4--4-4-4-4--6-6-4--2--2--4--4--4-4-4-4--|
A|----6-6-4--2--2--4--4--2-2-2-2--6-6-4--2--2--4--4--2-2-2-2--|
E|----4-4-2--0--0--2--2--2-2-2-2--4-4-2--0--0--2--2--2-2-2-2--|

[Verse] (play 2 times)
Guitar 2
We're the Lifters
e|--7-7-7--7-7--7-7--7-7-7-7--7-7-7--7-7--6-6--7-7-7-7-|
B|--7-7-7--7-7--7-7--7-7-7-7--7-7-7--7-7--7-7--7-7-7-7-|
G|-----------------------------------------------------|
D|-----------------------------------------------------|
A|-----------------------------------------------------|
E|-----------------------------------------------------|

[Pre-Chorus]
Guitar 1
I'll Keep Singing....
e|-----------------------------------------------------|
B|-----------------------------------------------------|
G|-----------------------------------------------------|
D|-----------------------------------------------------|
A|--2-2-2-2-2-2-2-2--4-4-4-4-4-4-4-4--2-2-2-2-2-2-2-2--|
E|--0-0-0-0-0-0-0-0--2-2-2-2-2-2-2-2--0-0-0-0-0-0-0-0--|
Pm ....................................................

e|-----------------------------------------------------|
B|-----------------------------------------------------|
G|-----------------------------------------------------|
D|--4---------4-4-4-4----------------------------------|
A|--4-4-4-4---4-4-4-4----------------------------------|
E|--2-2-2-2---2-2-2-2----------------------------------|
Pm    .....

[Chorus]
Guitar 1
Are We Growing Up...
e|-----------------------------------------------------|
B|-----------------------------------------------------|
G|--4--4--4-4--4--3--3--3-3--3--8--8--8-8-8-8----------|
D|--4--4--4-4--4--4--4--4-4--4--9--9--9-9-9-9--6-6-----|
A|--2--2--2-2--2--1--1--1-1--1--7--7--7-7-7-7--6-6-----|
E|------------------------------0--0--0-0-0-0--4-4-----|

e|-----------------------------------------------------|
B|-----------------------------------------------------|
G|---------4--4-4--4-4-4-4--3-3-3-3--3-3-3-3--8-8-8----|
D|--6-/-2--4--4-4--4-4-4-4--4-4-4-4--4-4-4-4--9-9-9----|
A|--6-/-2--2--2-2--2-2-2-2--1-1-1-1--1-1-1-1--7-7-7----|
E|--4-/-0-------------------------------------0-0-0----|

e|-----------------------------------------------------|
B|-----------------------------------------------------|
G|--8-8-8-8--------------------------------------------|
D|--9-9-9-9--6--6-/-2-2-2-2----------------------------|
A|--7-7-7-7--6--6-/-2-2-2-2----------------------------|
E|--0-0-0-0--4--4-/-0-0-0-0----------------------------|

[Chorus]
Guitar 2
Are We Growing Up...
e|-----------------------------------------------------|
B|-----------------------------------------------------|
G|--8--8--8-8-8-8-/-E--E-E--E-E-E-E-/-8--8--8-4-4-6----|
D|--x--x--x-x-x-x-/-x--x-x--x-x-x-x-/-x--x--x-x-x-x----|
A|--6--6--6-6-6-6-/-9--9-9--9-9-9-9-/-6--6--6-6-2-4----|
E|-----------------------------------------------------|

e|-----------------------------------------------------|
B|-----------------------------------------------------|
G|--8-8--8-/-6-6-6-6--8-8-8-8-8-8-8-8--E-E-E-E-E-E-E-E-|
D|--x-x--x-/-x-x-x-x--x-x-x-x-x-x-x-x--x-x-x-x-x-x-x-x-|
A|--6-6--6-/-4-4-4-4--6-6-6-6-6-6-6-6--9-9-9-9-9-9-9-9-|
E|-----------------------------------------------------|

e|-----------------------------------------------------|
B|-----------------------------------------------------|
G|--8-8-8--8-8-4-6--8-8-8-9--6-6-6-6-------------------|
D|--x-x-x--x-x-x-x--x-x-x-x--x-x-x-x-------------------|
A|--6-6-6--6-6-2-4--6-6-6-7--4-4-4-4-------------------|
E|-----------------------------------------------------|

[Bridge] (Play 2 times)
Guitar 4
And theres a drug...
e|--7-----7-----7---7-----7-----7---7-----7-----7------|
B|--7-7-7-7-7-7-7-7-7-7-7-7-7-7-7-7-7-7-7-7-7-7-7-7----|
G|-----------------------------------------------------|
D|-----------------------------------------------------|
A|-----------------------------------------------------|
E|-----------------------------------------------------|

e|--7-----7-----7--------------------------------------|
B|--7-7-7-7-7-7-7-7------------------------------------|
G|-----------------------------------------------------|
D|-----------------------------------------------------|
A|-----------------------------------------------------|
E|-----------------------------------------------------|

[Bridge] (Play 2 times)
Guitar 1
And there's a drug...
e|-----------------------------------------------------|
B|-----------------------------------------------------|
G|--4--4-4--4-4-4-4--3-3-3-3-3-3-3-3--9-9-9-9-9--9-9---|
D|--4--4-4--4-4-4-4--4-4-4-4-4-4-4-4--9-9-9-9-9--9-9---|
A|--2--2-2--2-2-2-2--1-1-1-1-1-1-1-1--7-7-7-7-7--7-7---|
E|------------------------------------0-0-0-0-0--0-0---|

[Bridge]
Guitar 1
Make This Town Feel Okay...
e|------------------------------------------------------|
B|------------------------------------------------------|
G|-------------------4---------------4------------------|
D|--6--6-6--2-2-2-2--4---------------4--4-4-4-4-4-4-4-4-|
A|--6--6-6--2-2-2-2--2------------------2-2-2-2-2-2-2-2-|
E|--4--4-4--0-0-0-0-------------------------------------|
Pm                  Hold                ...............

e|-----------------------------------------------------|
B|-----------------------------------------------------|
G|-----------------------------------------------------|
D|--4-4-4-4-4-4-4-4--4-4-4-4-4-4-4-4--4-4-4-4-4-4-4-4--|
A|--2-2-2-2-2-2-2-2--2-2-2-2-2-2-2-2--2-2-2-2-2-2-2-2--|
E|-----------------------------------------------------|
Pm ....................................................

e|-----------------------------------------------------|
B|-----------------------------------------------------|
G|-----------------------------------------------------|
D|--4-4-4-4-4-4-4-4--4-4-4-4-4-4-4--5--5--5-5-5-5------|
A|--2-2-2-2-2-2-2-2--2-2-2-2-2-2-2--5--5--5-5-5-5------|
E|----------------------------------3--3--3-3-3-3------|
Pm  ..........................

e|-----------------------------------------------------|
B|-----------------------------------------------------|
G|-----------------------------------------------------|
D|--7-7--7--7--7-7-------------------------------------|
A|--7-7--7--7--7-7-------------------------------------|
E|--5-5--5--5--5-5-------------------------------------|

[Bridge]
Guitar 2
So Give In..
e|-----------------------------------------------------|
B|-----------------------------------------------------|
G|--E--7--E--6--8--8-8--8-8-8-8--4-4-4-4--4-4-4-8------|
D|--x--x--x--x--x--x-x--x-x-x-x--x-x-x-x--x-x-x-x------|
A|--9--5--9--4--6--6-6--6-6-6-6--2-2-2-2--2-2-2-6------|
E|-----------------------------------------------------|

e|-----------------------------------------------------|
B|-----------------------------------------------------|
G|--8-8-8-8-8-8-8-8--4-4-4-4--4-8--8--8-8-8-9--9-9-8-8-|
D|--x-x-x-x-x-x-x-x--x-x-x-x--x-x--x--x-x-x-x--x-x-x-x-|
A|--6-6-6-6-6-6-6-6--2-2-2-2--2-6--6--6-6-6-7--7-7-6-6-|
E|-----------------------------------------------------|

e|-----------------------------------------------------|
B|-----------------------------------------------------|
G|--8-8-E-E--E-E-W-W--W-W-W-W--W-W-W-F--9-9-9-9--9-9-9-|
D|--x-x-x-x--x-x-x-x--x-x-x-x--x-x-x-x--x-x-x-x--x-x-x-|
A|--6-6-9-9--9-9-T-T--T-T-T-T--T-T-T-W--7-7-7-7--7-7-7-|
E|-----------------------------------------------------|

e|-----------------------------------------------------|
B|-----------------------------------------------------|
G|--8--------------------------------------------------|
D|--x--------------------------------------------------|
A|--6--------------------------------------------------|
E|-----------------------------------------------------|
   Hold

Half Time Feel
Guitar 1
So Give In...
e|-----------------------------------------------------|
B|-----------------------------------------------------|
G|-----------------------------------------------------|
D|--5-5-5-5-5-5-5-7--7-7-7-7-7-7-7-7-------------------|
A|--5-5-5-5-5-5-5-7--7-7-7-7-7-7-7-7---9---------------|
E|--3-3-3-3-3-3-3-5--5-5-5-5-5-5-5-5---7----------7----|
                                      Hold

e|-----------------------------------------------------|
B|-----------------------------------------------------|
G|-----------------------------------------------------|
D|--9-9-9-9-9-9-9-9--6-6-6-6--2-2-2-2------------------|
A|--7-7-7-7-7-7-7-7--6-6-6-6--2-2-2-2------------------|
E|--0-0-0-0-0-0-0-0--4-4-4-4--0-0-0-0------------------|

[Outro]
Guitar 1
Are We Growing Up...
e|-----------------------------------------------------|
B|-----------------------------------------------------|
G|--4--4--4-4--4--3--3--3-3--3--8--8--8-8-8-8----------|
D|--4--4--4-4--4--4--4--4-4--4--9--9--9-9-9-9--6-6-----|
A|--2--2--2-2--2--1--1--1-1--1--7--7--7-7-7-7--6-6-----|
E|------------------------------0--0--0-0-0-0--4-4-----|

e|-----------------------------------------------------|
B|-----------------------------------------------------|
G|---------4--4-4--4-4-4-4--3-3-3-3--3-3-3-3-----------|
D|--6-/-2--4--4-4--4-4-4-4--4-4-4-4--4-4-4-4-----------|
A|--6-/-2--2--2-2--2-2-2-2--1-1-1-1--1-1-1-1-----------|
E|--4-/-0----------------------------------------------|

e|-------------------------------------------------------|
B|-------------------------------------------------------|
G|-------------------------------------------------------|
D|--2----------------------------------------------------|
A|--2----------------------------------------------------|
E|--0----------------------------------------------------|
   Hold

[Outro]
Guitar 2
Are We Growing Up...
e|-----------------------------------------------------|
B|-----------------------------------------------------|
G|--8--8--8-8-8-8-/-E--E-E--E-E-E-E-/-8--8--8-4-4-6----|
D|--x--x--x-x-x-x-/-x--x-x--x-x-x-x-/-x--x--x-x-x-x----|
A|--6--6--6-6-6-6-/-9--9-9--9-9-9-9-/-6--6--6-6-2-4----|
E|-----------------------------------------------------|

e|-----------------------------------------------------|
B|-----------------------------------------------------|
G|--8-8--8-/-6-6-6-6--8-8-8-8-8-8-8-8--E-E-E-E-E-E-E-E-|
D|--x-x--x-/-x-x-x-x--x-x-x-x-x-x-x-x--x-x-x-x-x-x-x-x-|
A|--6-6--6-/-4-4-4-4--6-6-6-6-6-6-6-6--9-9-9-9-9-9-9-9-|
E|-----------------------------------------------------|

************************************

| /  Slide up
| x  Dead note

************************************

            
            
Suggest correction
Creating personal tab
Creating personal tab
You can edit any tab online and save it as your Personal.

You can edit, replace or remove any tab part or add personal notes – all changes will be seen only by you.

Personal tabs can be accessed anytime from any device, even offline.
Learn more »
comments
print report bad tab
6 comments total. Showing first comments.
0 reply
pnkr0cker 2,033 Jun 22, 2006 07:29 PM

okay, let me say this. I put this tab on my song book in guitar pro5, then someone stole that and put it on this site, then you put it in text. just wanted to say that! no offense. and at the part were he says we are the lifters, where the 7777 are, they are palm-muted harmonics! I like it!

-1 reply
z3r0element07 602 Jun 26, 2006 05:45 PM

I hate how people label numbers with letters. Just write it out... good tab anyway.

+1 reply
nedjnr 10 Jul 24, 2006 06:38 AM

Great tab i enjoyed learning to play it :)

guest
You may want to rate the tab now too:
select rating
Wanna post a correction for this tab? Suggest correction