Oops, an error
Loading. Please wait.
We have an official Sugar Were Going Down tab made by UG professional guitarists. Check out the tab »
×
7,455 views 15 this week
5 commentsread comments
1 2 3 4 5
x 12
add to favorites
×
Save as Personal and add changes to this tab that will be seen only by you. Learn more ›
×
You can save this tab as Personal to edit and correct it or add notes. All changes will be seen only by you. Learn more »
launch autoscroll
font size
0
reset
guitar tuner
backing track
0:00
0:00
edit
Autoscroll
slow
fast
+/-
esc
set tempo
stop
INTRO
G|-------------------------------------|
D|-------------------------------------| 
A|-------------------22222222----------|x2
D|-00000000-55555555----------55555555-|

VERSE (Am I more than you baragined for....)
G|-------------------------------------|
D|-------------------------------------|
A|-55555555----------22222222----------|x4
D|----------55555555----------55555555-|

DON'T PLAY DURING THE "DROP A HEART...." PART

CHORUS
G|---------------------------------------------------------------------|
D|---------------------------------------------------------------------|
A|-----------------------------------2222222222222222------------------|
D|-0000000000000000-5555555555555555------------------5555555555555555-|

G|--------------------------------------------------------|
D|--------------------------------------------------------|
A|-----------------------------22222--22222---------------|
D|-00000--00000--55555--55555----------------55555--55555-|

PRE VERSE
G|-------------------------------------------------------------------------|
D|-------------------------------------------------------------------------|
A|--------------------------------222-222-22-22-3333-3-222-222-22-22----5~-|
D|-0000-0-00-555-555-55-55-7777-7------------------------------------5~----|

REPEAT VERSE

REPEAT CHORUS x1 then 2nd time play this:

G|----------------------------------------------|
D|----------------------------------------------|
A|----------------------------------------------|
D|-5-222-0~------5~------0~------5~----------55-|

G|-----------------------------------------------|
D|-----------------------------------------------|
A|---------------------22222-22222---------------|
D|-00000-00000-55555-55555-----------00000-00000-|

G|-------------------------------------------------------|
D|-------------------------------------------------------|
A|-----------------------------------2222222222222222----|
D|-0000000000000000-5555555555555555------------------55-|

ENDING
G|----------|
D|----------|
A|----------|
D|-5-222-0~-|

            
            
Suggest correction
Creating personal tab
Creating personal tab
You can edit any tab online and save it as your Personal.

You can edit, replace or remove any tab part or add personal notes – all changes will be seen only by you.

Personal tabs can be accessed anytime from any device, even offline.
Learn more »
comments
print report bad tab
5 comments total. Showing first comments.
0 reply
basspunk1823 124 Jul 27, 2006 11:19 AM

awesome exept for the bridge/outro thing
instead of this:
G----------|
D----------|
A----------|
E-5-222-0*-|
it's this:
G----------|
D----------|
A----------|
E-55-3-2-0-|
but besides that great tab

0 reply
basspunk1823 124 Jul 27, 2006 11:21 AM

and i meant to put "D" on the bottem string

0 reply
johnpauljones12 10 Apr 12, 2009 07:37 AM

you do play during the drop a heart it goes

D--00000000-55555555-77777777-999999999-10101010101010-999999999-7-5
those are the correct frets just play the guitar rythym

guest
Wanna post a correction for this tab? Suggest correction