Oops, an error
Loading. Please wait.
We have an official Sugar Were Going Down tab made by UG professional guitarists. Check out the tab »
×
81,643 views 9 this week
8 commentsread comments
1 2 3 4 5
x 21
add to favorites
×
Save as Personal and add changes to this tab that will be seen only by you. Learn more ›
×
You can save this tab as Personal to edit and correct it or add notes. All changes will be seen only by you. Learn more »
launch autoscroll
font size
0
reset
guitar tuner
backing track
0:00
0:00
edit
Autoscroll
slow
fast
+/-
esc
set tempo
stop
[Intro]

[after drum intro]
G|----------------|----------------|----------------|----------------|
D|----------------|----------------|----------------|----------------|
A|5-5-5-5-5-5-5-5-|5-5-5-5-5-5-5-5-|----------------|----------------|
D|----------------|----------------|5-5-5-5-5-5-5-5-|5-5-5-5-5-5-5-5-|
  1 + 2 + 3 + 4 +  1 + 2 + 3 + 4 +  1 + 2 + 3 + 4 +  1 + 2 + 3 + 4 +

G|----------------|----------------|----------------|----------------|
D|----------------|----------------|----------------|----------------|
A|----------------|----------------|----------------|----------------|
D|9-9-9-9-9-9-9-9-|9-9-9-9-9-9-9-9-|5-5-5-5-5-5-5-5-|5-5-5-5-5-5-5-5-|
  1 + 2 + 3 + 4 +  1 + 2 + 3 + 4 +  1 + 2 + 3 + 4 +  1 + 2 + 3 + 4 +

G|----------------|----------------|----------------|----------------|
D|----------------|----------------|----------------|----------------|
A|5-5-5-5-5-5-5-5-|5-5-5-5-5-5-5-5-|----------------|----------------|
D|----------------|----------------|5-5-5-5-5-5-5-5-|5-5-5-5-5-5-5-5-|
  1 + 2 + 3 + 4 +  1 + 2 + 3 + 4 +  1 + 2 + 3 + 4 +  1 + 2 + 3 + 4 +

G|----------------|----------------|----------------|----------------|
D|----------------|----------------|----------------|----------------|
A|----------------|----------------|----------------|----------------|
D|9-9-9-9-9-9-9-9-|9-9-9-9-9-9-9-9-|5-5-5-5-5-5-5-5-|5*--------------|
  1 + 2 + 3 + 4 +  1 + 2 + 3 + 4 +  1 + 2 + 3 + 4 +  1 + 2 + 3 + 4 +


[Verse]

G|----------------|----------------|----------------|----------------|
D|----------------|----------------|----------------|----------------|
A|5---5---5-5-5-5-|----------------|----------------|----------------|
D|----------------|5---5---5-5-5-5-|9---9---9-9-9-9-|5---5---5-5-5-5-|
  1 + 2 + 3 + 4 +  1 + 2 + 3 + 4 +  1 + 2 + 3 + 3 +  1 + 2 + 3 + 4 +


[Pre-Chorus]

G|----------------|----------------|----------------|----------------|
D|----------------|----------------|----------------|----------------|
A|5-5-5-5-5-5-5-5-|----------------|----------------|----------------|
D|----------------|5-5-5-5-5-5-5-5/|7-7-7-7-7-7-7-7/|9-9-9-9-9-9-9-9/|
  1 + 2 + 3 + 4 +  1 + 2 + 3 + 4 +  1 + 2 + 3 + 4 +  1 + 2 + 3 + 4 +

   (tens)
G|----------------|----------------|----------------|----------------|
D|----------------|----------------|----------------|----------------|
A|----------------|----------------|----------------|----------------|
D|1010101010101010|9-9-9-9-9-9-9-9\|5-5-5-5-5-5-5-5-|5-5-5-5-5-5-5-5-|
  1 + 2 + 3 + 4 +  1 + 2 + 3 + 4 +  1 + 2 + 3 + 4 +  1 + 2 + 3 + 4 +


[Chorus]

G|----------------|----------------|----------------|----------------|
D|----------------|----------------|----------------|----------------|
A|5-5-5-5-5-5-5-5-|5-5-5-5-5-5-5-5-|----------------|----------------|
D|----------------|----------------|5-5-5-5-5-5-5-5-|5-5-5-5-5-5-5-5-|
  1 + 2 + 3 + 4 +  1 + 2 + 3 + 4 +  1 + 2 + 3 + 4 +  1 + 2 + 3 + 4 +

G|----------------|----------------|----------------|----------------|
D|----------------|----------------|----------------|----------------|
A|----------------|----------------|----------------|----------------|
D|9-9-9-9-9-9-9-9-|9-9-9-9-9-9-9-9-|5-5-5-5-5-5-5-5-|5-5-5-5-5-5-5-5-|
  1 + 2 + 3 + 4 +  1 + 2 + 3 + 4 +  1 + 2 + 3 + 4 +  1 + 2 + 3 + 4 +

G|----------------|----------------|----------------|----------------|
D|----------------|----------------|----------------|----------------|
A|5-5-5-5-5-------|5-5-5-5-5-------|----------------|----------------|
D|----------------|----------------|5-5-5-5-5-------|5-5-5-5-5-------|
  1 + 2 + 3 + 4 +  1 + 2 + 3 + 4 +  1 + 2 + 3 + 4 +  1 + 2 + 3 + 4 +

G|----------------|----------------|----------------|----------------|
D|----------------|----------------|----------------|----------------|
A|----------------|----------------|----------------|----------------|
D|9-9-9-9-9-------|9-9-9-9-9-------|5-5-5-5-5-------|5-5-5-5-5-------|
  1 + 2 + 3 + 4 +  1 + 2 + 3 + 4 +  1 + 2 + 3 + 4 +  1 + 2 + 3 + 4 +


[Post-Chorus]

G|----------------|----------------|---------------|----------------|
D|----------------|----------------|---------------|----------------|
A|5-5-5-5-5-------|----------------|---------------|----------------|
D|----------------|5---5-5-5-5-5-5-|7-7-7-7-7------|9---9-9-9-9-9-9-|
  1 + 2 + 3 + 4 +  1 + 2 + 3 + 4 +  1 + 2 + 3 + 4 + 1 + 2 + 3 + 4 +
  
   (tens)
G|---------------|----------------|----------------|----------------|
D|---------------|----------------|----------------|----------------|
A|---------------|----------------|----------------|----------------|
D|1010101010-----|9---9-9-9-9-9-9-|5-5-5-5-5*------|5-5-5-5-5*------|
  1 + 2 + 3 + 4 + 1 + 2 + 3 + 4 +  1 + 2 + 3 + 4 +  1 + 2 + 3 + 4 +


[Verse]

G|----------------|----------------|----------------|----------------|
D|----------------|----------------|----------------|----------------|
A|5---5---5-5-5-5-|----------------|----------------|----------------|
D|----------------|5---5---5-5-5-5-|9---9---9-9-9-9-|5---5---5-5-5-5-|
  1 + 2 + 3 + 4 +  1 + 2 + 3 + 4 +  1 + 2 + 3 + 3 +  1 + 2 + 3 + 4 +


[Pre-Chorus]

G|----------------|----------------|----------------|----------------|
D|----------------|----------------|----------------|----------------|
A|5-5-5-5-5-5-5-5-|----------------|----------------|----------------|
D|----------------|5-5-5-5-5-5-5-5/|7-7-7-7-7-7-7-7/|9-9-9-9-9-9-9-9/|
  1 + 2 + 3 + 4 +  1 + 2 + 3 + 4 +  1 + 2 + 3 + 4 +  1 + 2 + 3 + 4 +
   [TENS]
G|----------------|----------------|----------------|----------------|
D|----------------|----------------|----------------|----------------|
A|----------------|----------------|----------------|----------------|
D|1010101010101010|9-9-9-9-9-9-9-9\|5-5-5-5-5-5-5-5-|5-5-5-5-5-5-5-5-|
  1 + 2 + 3 + 4 +  1 + 2 + 3 + 4 +  1 + 2 + 3 + 4 +  1 + 2 + 3 + 4 +

[Chorus]
G|----------------|----------------|----------------|----------------|
D|----------------|----------------|----------------|----------------|
A|5-5-5-5-5-5-5-5-|5-5-5-5-5-5-5-5-|----------------|----------------|
D|----------------|----------------|5-5-5-5-5-5-5-5-|5-5-5-5-5-5-5-5-|
  1 + 2 + 3 + 4 +  1 + 2 + 3 + 4 +  1 + 2 + 3 + 4 +  1 + 2 + 3 + 4 +

G|----------------|----------------|----------------|----------------|
D|----------------|----------------|----------------|----------------|
A|----------------|----------------|----------------|----------------|
D|9-9-9-9-9-9-9-9-|9-9-9-9-9-9-9-9-|5-5-5-5-5-5-5-5-|5-5-5-5-5-5-5-5-|
  1 + 2 + 3 + 4 +  1 + 2 + 3 + 4 +  1 + 2 + 3 + 4 +  1 + 2 + 3 + 4 +

G|----------------|----------------|----------------|----------------|
D|----------------|----------------|----------------|----------------|
A|5-5-5-5-5-------|5-5-5-5-5-------|----------------|----------------|
D|----------------|----------------|5-5-5-5-5-------|5-5-5-5-5-------|
  1 + 2 + 3 + 4 +  1 + 2 + 3 + 4 +  1 + 2 + 3 + 4 +  1 + 2 + 3 + 4 +

G|----------------|----------------|----------------|----------------|
D|----------------|----------------|----------------|----------------|
A|----------------|----------------|----------------|----------------|
D|9-9-9-9-9-------|9-9-9-9-9-------|5-5-5-5-5-------|5-5-5-5-5-------|
  1 + 2 + 3 + 4 +  1 + 2 + 3 + 4 +  1 + 2 + 3 + 4 +  1 + 2 + 3 + 4 +


[Bridge]

G|----------------|----------------|----------------|----------------|
D|----------------|----------------|----------------|----------------|
A|----------------|----------------|----------------|----------------|
D|5---2---2---2---|0*--------------|*---------------|*---------------|
  1 + 2 + 3 + 4 +  1 + 2 + 3 + 4 +  1 + 2 + 3 + 4 +  1 + 2 + 3 + 4 +

G|----------------|----------------|----------------|----------------|
D|----------------|----------------|----------------|----------------|
A|----------------|----------------|----------------|----------------|
D|*---------------|5*--------------|*---------------|*---------------|
  1 + 2 + 3 + 4 +  1 + 2 + 3 + 4 +  1 + 2 + 3 + 4 +  1 + 2 + 3 + 4 +

G|----------------|----------------|----------------|----------------|
D|----------------|----------------|----------------|----------------|
A|----------------|----------------|----------------|----------------|
D|*---------------|0*--------------|*---------------|*---------------|
  1 + 2 + 3 + 4 +  1 + 2 + 3 + 4 +  1 + 2 + 3 + 4 +  1 + 2 + 3 + 4 +

G|----------------|----------------|----------------|----------------|
D|----------------|----------------|----------------|----------------|
A|----------------|----------------|----------------|----------------|
D|*---------------|5*--------------|----------------|5-5X------------|
  1 + 2 + 3 + 4 +  1 + 2 + 3 + 4 +  1 + 2 + 3 + 4 +  1 + 2 + 3 + 4 +


[Post-Bridge]

G|----------------|----------------|----------------|----------------|
D|----------------|----------------|----------------|----------------|
A|5-5-5-5-5-------|5-5-5-5-5-------|----------------|----------------|
D|----------------|----------------|5-5-5-5-5-------|5-5-5-5-5-------|
  1 + 2 + 3 + 4 +  1 + 2 + 3 + 4 +  1 + 2 + 3 + 4 +  1 + 2 + 3 + 4 +

G|----------------|----------------|----------------|----------------|
D|----------------|----------------|----------------|----------------|
A|----------------|----------------|----------------|----------------|
D|9-9-9-9-9-------|9-9-9-9-9-------|5-5-5-5-5-------|5-5-5-5-5-------|
  1 + 2 + 3 + 4 +  1 + 2 + 3 + 4 +  1 + 2 + 3 + 4 +  1 + 2 + 3 + 4 +


[Chorus]

G|----------------|----------------|----------------|----------------|
D|----------------|----------------|----------------|----------------|
A|5-5-5-5-5-5-5-5-|5-5-5-5-5-5-5-5-|----------------|----------------|
D|----------------|----------------|5-5-5-5-5-5-5-5-|5-5-5-5-5-5-5-5-|
  1 + 2 + 3 + 4 +  1 + 2 + 3 + 4 +  1 + 2 + 3 + 4 +  1 + 2 + 3 + 4 +

G|----------------|----------------|----------------|----------------|
D|----------------|----------------|----------------|----------------|
A|----------------|----------------|----------------|----------------|
D|9-9-9-9-9-9-9-9-|9-9-9-9-9-9-9-9-|5-5-5-5-5-5-5-5-|5-5-5-5-5-5-5-5-|
  1 + 2 + 3 + 4 +  1 + 2 + 3 + 4 +  1 + 2 + 3 + 4 +  1 + 2 + 3 + 4 +


  END FRAGMENT

G|----------------|----------------|
D|----------------|----------------|
A|----------------|----------------|
D|5---2---2---2---|0*--------------|
  1 + 2 + 3 + 4 +  1 + 2 + 3 + 4 +



************************************

| /  Slide up
| \  Slide down
| *  Hold note
| X  Mute note

************************************

            
            
Suggest correction
Creating personal tab
Creating personal tab
You can edit any tab online and save it as your Personal.

You can edit, replace or remove any tab part or add personal notes – all changes will be seen only by you.

Personal tabs can be accessed anytime from any device, even offline.
Learn more »
comments
print report bad tab
8 comments total. Showing first comments. show 1 bad comment
0 reply
Supadude 10 Jan 14, 2007 06:47 AM

its great though its written in such a ****ed up way i get sick..

-2 reply
KieronC07 80 Jan 25, 2007 11:06 AM

would be a 5 but a cannit find a tempo anywere

guest
Wanna post a correction for this tab? Suggest correction