Oops, an error
Loading. Please wait.
We have an official Take Over The Breaks Over tab made by UG professional guitarists. Check out the tab »
×
208,515 views 171 this week
52 commentsread comments
1 2 3 4 5
x 81
add to favorites
×
Save as Personal and add changes to this tab that will be seen only by you. Learn more ›
×
You can save this tab as Personal to edit and correct it or add notes. All changes will be seen only by you. Learn more »
launch autoscroll
font size
0
reset
how to read this tab
guitar tuner
edit
Autoscroll
slow
fast
+/-
esc
set tempo
stop
Author
Song:         The Take Over,The Breaks Over
Album:        Infinity on High
Artist:       Fall Out Boy
Date Tabbed:  January,2007
Guitar Tabber:Ryan Manongdo/16/m/Philippines
              no_falter0x@yahoo.com(Friendster,Facebook&YM)
              or mail me at rhyezkie@gmail.com

The version of this tab is an AOL music session(not from the cd)

http://www.youtube.com/watch?v=klZuSbS1De4

For your questions or suggestions,just post in friendster comment,PM or mail me.

Please check out my band's profile as well=)

http://artists.ultimate-guitar.com/renovationunder/


Tuning: standard


[Intro/Verse]

Gtr.1 Only(For Patrick):
e|------------------------------------------------------------|
B|------------------------------------------------------------|
G|---4-----4----4-----4----------4----4---4-------4-----------| 
D|--------------------------5---------------------------5-----|
A|-4-----4---4--------------5-----------------2-2---2-2---3---|
E|----------------4-4---4-4-3--2----2----2--------------------|(x8)
   . .   . . .  .  .. . ..    .  . .  . . .   . .   . . . .

Gtr.2 Enters:Don't pretend...

e|------------------------------------------------------|
B|------------------------------------------------------|
G|-6-6-6-6-6----------------4-4-4-4-4--4----------------|
D|-6-6-6-6-6--6-6-6-6-6--5--4-4-4-4-4--4-4-4-4-4-4--5---|
A|-4-4-4-4-4--6-6-6-6-6--5--4-4-4-4-4--2-2-2-2-2-2--3---|
E|------------4-4-4-4-4--3--2-2-2-2-2-------------------|


[Chorus]

Would you rather be...
e|-----------------------------------------------------------------------------------------------------|
B|-----------------------------------------------------------------------------------------------------|
G|-2-2-2-2-2--4-4-4-4-4----------------6-6-6-6--4-4-4---2-2-2-2-2--4-4-4-4----------------6-6-6--4-4---|
D|-2-2-2-2-2--4-4-4-4-4--7--6-6-6-6-6--6-6-6-6--4-4-4---2-2-2-2-2--4-4-4-4--7--6-6-6-6-6--6-6-6--4-4---|
A|-0-0-0-0-0--2-2-2-2-2--7--6-6-6-6-6--4-4-4-4--2-2-2---0-0-0-0-0--2-2-2-2--7--6-6-6-6-6--4-4-4--2-2---|
E|-----------------------5--4-4-4-4-4---------------------------------------5--4-4-4-4-4---------------|


[Verse]

They said your head....
Gtr.1:Repeat Verse 1

Gtr.2
e|---------------------------|
B|---------------------------|
G|-9-9-9--13--11-11-11---8---| Repeat many times...
D|-x-x-x---x---x--x--x---x---|
A|-7-7-7--11---9--9--9---6---|
E|---------------------------|
   . . .   .   .  .  .   .


[Repeat Pre-Chorus]


[Repeat Chorus]


Bridge prt.1: We do it in the dark...

e|-----------------------------------------------------------------------|
B|-----------------------------------------------------------------------|
G|-----------------------------------------------------------------------|
D|-9-9-9-x-x-x-x--4-4-4-x-x-x-x-9-6--7-7-7-x-x-x-x--6-x-x-x-x-4-x-x-x-x--|
A|-7-7-7-x-x-x-x--2-2-2-x-x-x-x-9-6--7-7-7-x-x-x-x--4-x-x-x-x-2-x-x-x-x--|
E|------------------------------7-4--5-5-5-x-x-x-x-----------------------|

e|--------------------------------------------------------|
B|--------------------------------------------------------|
G|--------------------------------------------------------|
D|-9-9-9-9-9-4-4-4-4-4--9-6-7-7-7-7-7-7-6-6-6-6-4-4-4-4---|
A|-7-7-7-7-7-2-2-2-2-2--9-6-7-7-7-7-7-7-4-4-4-4-2-2-2-2---|
E|----------------------7-4-5-5-5-5-5-5-------------------|


[Bridge prt.2]
(Repeat Verse w/Gtr.2: Don't pretend it...)


[Bridge prt.3]
(Gtr.Adlib)

Gtr.1
e|-------------------------------------|
B|-------------------------------------|
G|-2-2-2-2--4-4-4-4--------------------|
D|-2-2-2-2--4-4-4-4--6-6-6-6--6~--4~---|
A|-0-0-0-0--2-2-2-2--6-6-6-6--4~--2~---|
E|-------------------4-4-4-4-----------|

Gtr.2:
e|------------------------------------------------------------------------------------|
B|------------------------------------------------------------------------------------|
G|------------------------------------------------------------------------------------|
D|--------4-7-6-4-6--7/9-7-6-----------------4-7+-6-4-6--7/9-7-6------------11b-9b----|
A|-4-6-7---------------------6-7-------4-6-7----------------------7b-9b-11b-----------|
E|-------------------------------9-7--------------------------------------------------|
   ^ ^ ^  ^ ^ ^ ^ ^

e|---7----7----7----------7-12*---------------------7---7---7---------------------------------|
B|-----------7---6-8b-6-----------------------------------7----6-8b--6------------------------|
G|-9----9---------------6-------9--11-12/14-12b---9---9------------------6h7-9h10-12p11--9b---|
D|--------------------------------------------------------------------------------------------|
A|--------------------------------------------------------------------------------------------|
E|--------------------------------------------------------------------------------------------|


After Adlib: We do it in the dark...

e|------------------------------------------------------------------|
B|------------------------------------------------------------------| Repeat Until the songs fades out.
G|------------------------------------------------------------------| Listen to the song for timing...
D|-9-9-9-9-9-9-9--4-4-4-4-4-4-4--7-7-7-7-7-7-7-7--6-6-6-6--4-4-4-4--|
A|-7-7-7-7-7-7-7--2-2-2-2-2-2-2--7-7-7-7-7-7-7-7--4-4-4-4--2-2-2-2--|
E|-------------------------------5-5-5-5-5-5-5-5--------------------|

End...

The Take Over, The Breaks Over Lyrics:


[Verse 1]

Baby seasons change but people don't
and i'll always be waiting in the back room
i'm boring but overcompensate with headlines and flash flash flash, photography


[Pre-Chorus]

But don't pretend you ever forgot about me
don't pretend you ever forgot about me


[Chorus]

Wouldn't you rather be a widow than a divorcee
smile your way through fashion magazines, oh
widow, or a divorcee?
and don't pretend, d-d-d-d-don't pretend
we don't fight fair
we don't fight fair


[Verse 2]

They say your head can be a prison
then these are just conjugal visits
people will dissect us til this doesn't mean a thing anymore


[Pre-Chorus]

don't pretend you ever forgot about me
don't pretend you ever forgot about me


[Chorus]

wouldn't you rather be a widow than a divorcee
smile your way through fashion magazines, oh
widow, or a divorcee?
don't pretend, d-d-d-d-don't pretend


[Bridge]

we do it in the dark
with smiles on our faces
we're dropped and well concealed
in secret places, woah-oh

we do it in the dark
with smiles on our faces
we're dropped and well concealed
in secret places, we don't fight fair
we don't fight fair
we don't fight fair
we don't fight fair
we don't fight fair

we do it in the dark
with smiles on our faces
we're dropped and well concealed
in secret places, woah-oh

we do it in the dark
with smiles on our faces
we're dropped and well concealed
in secret places, we don't fight fair
with smiles on our faces
we're dropped and well concealed
in secret places, we don't fight fair
(don't pretend you ever forgot about me)
we don't fight fair
(don't pretend you ever forgot about me)
we don't fight fair

************************************

| b  - bend
| /\ - slide
| h  - hammer-on
| .  - palm muting
| x  - scratching
| ~  - let it ring
| +  - pinch harmonics
| *  - artificial harmonics
| p  - pull-off
| ^  - pedal-on(wah-wah)

************************************

            
            
Suggest correction
Creating personal tab
Creating personal tab
You can edit any tab online and save it as your Personal.

You can edit, replace or remove any tab part or add personal notes – all changes will be seen only by you.

Personal tabs can be accessed anytime from any device, even offline.
Learn more »
comments
print report bad tab
52 comments total. Showing first comments. show 1 bad comment
+3 reply
ceyan2006 10 Jan 22, 2007 11:51 AM

wohoo....YEAH!!!

-2 reply
pnkr0cker 2,033 Jan 22, 2007 05:44 PM

here is me playing with my tabs. i kind of messed up on the solo because i wasn't paying attention.

http://www.youtube.com/watch?v=pdKUmiklqsk

guest
You may want to rate the tab now too:
select rating
Wanna post a correction for this tab? Suggest correction