Oops, an error
Loading. Please wait.

The Shipped Gold Standard bass

version 1
version 1

Whole song

Interactive

8,511 views 18 this week
3 commentsread comments
1 2 3 4 5
x 8
add to favorites
×
Save as Personal and add changes to this tab that will be seen only by you. Learn more ›
×
You can save this tab as Personal to edit and correct it or add notes. All changes will be seen only by you. Learn more »
launch autoscroll
font size
0
reset
guitar tuner
edit
Autoscroll
slow
fast
+/-
esc
set tempo
stop
-------------------------------------------------------------------------------
			     The (Shipped) Gold Standard
-------------------------------------------------------------------------------

Tabbed By: Valerie Louie
e-mail: queefist@yahoo.com
Tuning: standard

Intro
G|------------|
D|------------|
A|------------|
E|-4-4-4-40~--|

Verse "Sometimes I wanna quit this song.."
G|-------------|     |---------------------|
D|-------------|     |---------------------|
A|-------------|     |------4h6-4-6-7-7h9--|
E|-4-4-4-40~---|x4   |4-6-7----------------|x2

pre-chorus "I wanna scream i love you at the top of my lungs."
G|--------------------------------|----------------|
D|-444444--666664-----------------|-44444--666664--|
A|-------4------------------------|------4---------|
E|----------------0000000000000000|--------------0-|

Chorus "you can only blame your problems.."
G|---------------------------------------------------------------------|
D|---------------------------------------------------------------------|
A|---------------------------------------------------------------------|
E|44444444-00000000-77777777-22222222-44444444-00000000-777777777777-76|

G|------------------------------------------------------------------|
D|------------------------------------------------------------------|
A|------------------------------------------------------------------|
E|44444444-00000000-77777777-22222222-44444444-00000000-7-7-7-7-76--|

Verse 
G|-------------|     |---------------------|
D|-------------|     |---------------------|
A|-------------|     |------4h6-4-6-7-7h9--|
E|-4-4-4-40~---|x4   |4-6-7----------------|x2

pre-chorus x1

Chorus "you can only blame your problems.."
G|---------------------------------------------------------------------|
D|---------------------------------------------------------------------|
A|---------------------------------------------------------------------|
E|44444444-00000000-77777777-22222222-44444444-00000000-777777777777-76|

G|------------------------------------------------------------------|
D|------------------------------------------------------------------|
A|------------------------------------------------------------------|
E|44444444-00000000-77777777-22222222-44444444-00000000-7-7-7-7-76--|


bridge "i'll leave you alone..."
G|--------|
D|--------|
A|--------|
E|-0--4---| x3


Chorus "you can only blame your problems.."
G|---------------------------------------------------------------------|
D|---------------------------------------------------------------------|
A|---------------------------------------------------------------------|
E|44444444-00000000-77777777-22222222-44444444-00000000-777777777777-76|

G|-----------------------------------------------------------------------------|
D|-----------------------------------------------------------------------------|
A|-----------------------------------------------------------------------------|
E|44444444-00000000-77777777-22222222-44444444-00000000-7-7-7-7-76-7-7-7-7-7-76|


I'd really appreciate it if you left some feedback.  
Comment and rate please. Thanks!

            
            
Suggest correction
Creating personal tab
Creating personal tab
You can edit any tab online and save it as your Personal.

You can edit, replace or remove any tab part or add personal notes – all changes will be seen only by you.

Personal tabs can be accessed anytime from any device, even offline.
Learn more »
comments
print report bad tab
3 comments total.
0 reply
roebass33 10 Jan 05, 2009 03:09 PM

Verse "Sometimes I wanna quit this song.."
G|-------------| |---------------------|
D|-------------| |----------------7h9--|
A|-------------| |------4h6-4-6-7------|
E|-4-4-4-40~---|x4 |4-6-7----------------|x2

needs to be

Verse "Sometimes I wanna quit this song.."
G|-------------| |---------------------|
D|-------------| |---------------------|
A|-------------| |------4h6-4-6-7-7h9--|
E|-4-4-4-40~---|x4 |4-6-7----------------|x2

but really good job so far on the tabbing

+1 reply
Delboy_360 10 Feb 14, 2009 10:42 AM

dosnt seem like any problems really. Great tab bro

5*

0 reply
necriononguitar 3,062 May 18, 2009 09:11 AM

hmmm yes its a good tab, but some parts are wrong. roebass is right in my opinion.
and delboy: there are problems and NO SHE IS NOT YOUR BRO -.-

guest
You may want to rate the tab now too:
select rating
Wanna post a correction for this tab? Suggest correction