Oops, an error
Loading. Please wait.
We have an official Thnks Fr Th Mmrs tab made by UG professional guitarists. Check out the tab »
×
34,382 views 51 this week
1 commentread comment
1 2 3 4 5
x 21
add to favorites
×
Save as Personal and add changes to this tab that will be seen only by you. Learn more ›
×
You can save this tab as Personal to edit and correct it or add notes. All changes will be seen only by you. Learn more »
launch autoscroll
font size
0
reset
guitar tuner
backing track
0:00
0:00
edit
Autoscroll
slow
fast
+/-
esc
set tempo
stop
-------------------------------------------------------------------------------
                             THNKS FR TH MMRS – Fall Out Boy
-------------------------------------------------------------------------------

Tabbed By : Lew Hardy
e-mail: lewh@hotmail.co.uk

Ok kids, this is my first tab, I think it’s pretty spot on. I’ve tried sending 
this in before but that was like, last year and nothing so I’m gna try again! I’ve 
done all this by ear but it sounds right to me. Let me know what you think? Cheers 

Tuning: Drop D- DADG

[Intro]
G|---------------------------------------------------------------------------|
D|---------------------------------------------------------------------------|
A|--------------[NO BASS IN FIRST PART OF INTRO]-----------------------------|
D|---------------------------------------------------------------------------|

G|----------------------------------------------------------------------------------------------------------|
D|----------------------------------------------------------------------------------------------------------|
A|---------------------------------------------------------------------4-4-4-4-4-4-4-4----------------------|
D|--/88888888-8-8-8-8-8-8-8-8-7-7-7-7-7-7-7-7-3-3-3-3-3-3-3-3-11111111-----------------7-7-7-7-7-7-7-7-7~---|

[Chorus]
G|---------------------------------------------------------------------------|
D|--------------------------------------------------------------------66-----|
A|------------------------------------------------------------------66--66---|
D|-88888888-44444444-11111111-44447777-88888888-44444444-66666666-66---------|

G|---------------------------------------------------------------------------|
D|--------------------------------------------------------------------66-----|
A|------------------------------------------------------------------66--66---| 
D|-88888888-44444444-11111111-44447777-88888888-44444444-66666666-66---------|

[Verse]
G|---------------------------------------------------------------------------|
D|-/888888888888888-77777777-------------------------------------------------|
A|---------------------------88888888-66666666-44444444-00000000-0~----------|
D|---------------------------------------------------------------------------|

G|---------------------------------------------------------------------------|
D|-8888888888888888-77777777-------------------------------------------------|
A|---------------------------88888888-66666666-44444444-00000000-------------|
D|---------------------------------------------------------------------------|
[Chorus]
G|---------------------------------------------------------------------------|
D|--------------------------------------------------------------------66-----|
A|------------------------------------------------------------------66--66---| 
D|-88888888-44444444-11111111-44447777-88888888-44444444-66666666-66---------|

G|---------------------------------------------------------------------------|
D|--------------------------------------------------------------------66-----|
A|------------------------------------------------------------------66--66---|
D|-88888888-44444444-11111111-44447777-88888888-44444444-66666666-66-------8\|

BREAK
G|---------------------------------------------------------------------------|
D|---------------------------------------------------------------------------|
A|-------------[NO BASS IN FIRST PART OF BREAK]------------------------------|
D|---------------------------------------------------------------------------|

G|---------------------------------------------------------------------------|
D|--88888888-77777777-------------------88888888-77777777--------------------|
A|--------------------66666666-99998888-------------------66666666-88888888--|
D|---------------------------------------------------------------------------|

G|---------------------------------------------------------------------------|
D|---------------------------------------------------------------------------|
A|-88888888-8\---------------------------------------------------------------|
D|---------------------------------------------------------------------------|

G|---------------------------------------------------------------------------|
D|---------------------------------------------------------------------------|
A|-8\---------------------------------------------------8-88888888-88888888--|
D|---------------------------------------------------------------------------|

[Chorus]
G|---------------------------------------------------------------------------|
D|--------------------------------------------------------------------66-----|
A|------------------------------------------------------------------66--66---|
D|-88888888-44444444-11111111-44447777-88888888-44444444-66666666-66---------|

G|---------------------------------------------------------------------------|
D|--------------------------------------------------------------------66-----|
A|------------------------------------------------------------------66--66---|
D|-88888888-44444444-11111111-44447777-88888888-44444444-66666666-66---------|


************************************

| /  Slide up
| ~  Vibrato
| \  Slide down

************************************

            
            
Suggest correction
Creating personal tab
Creating personal tab
You can edit any tab online and save it as your Personal.

You can edit, replace or remove any tab part or add personal notes – all changes will be seen only by you.

Personal tabs can be accessed anytime from any device, even offline.
Learn more »
comments
print report bad tab
1 comment total.
+1 reply
Robert2511 321 Aug 24, 2014 05:52 AM

Great tab, easy to learn and extremely fun to play, couldn't stop haha

guest
You may want to rate the tab now too:
select rating
Wanna post a correction for this tab? Suggest correction