Oops, an error
Loading. Please wait.
We have an official Thriller tab made by UG professional guitarists. Check out the tab »
×
3,932 views 1 this week
2 commentsread comments
1 2 3 4 5
1 last vote to show rating
add to favorites
×
Save as Personal and add changes to this tab that will be seen only by you. Learn more ›
×
You can save this tab as Personal to edit and correct it or add notes. All changes will be seen only by you. Learn more »
launch autoscroll
font size
0
reset
how to read this tab
guitar tuner
edit
Autoscroll
slow
fast
+/-
esc
set tempo
stop
Author
Artist: Fall Out Boy
Song: Thriller
Album: Infinity On High


/ = Slide Up
\ = Slide Down
. = Palm Mute
x = Dead note (Mute)
> = Let Ring

Drop D Tuning (DADGBE)


Intro

E-----0-----------0-------------0-------------0------------0-----------0-|
B--10----10-10-10----10-10--10----10--10--10-------10-10-10----10-10-10--|
G-7--7-----7--7--7-----7---6---6-----6---6---6----6--0--0-----0--0--0----|
D------------------------------------------------------------------------|
A------------------------------------------------------------------------|
D------------------------------------------------------------------------|

E------------0--------------0---------|
B-10-10--10-----10--10--10-----10--10-|  x2
G---0---------------------------------|
D-------7---7------7---7---7------7---|
A-------------------------------------|
D-------------------------------------|


Guitar 2
E----------------------------|
B----------------------------|
G----------------------------|
D---12>----11>---------------|
A-12--------------10>----12>-|
D----------------------------|


continued...


Guitar 1
E------------------------------------------------------|
B-----121212-------------------------------------------|   x2
G-777-x-x-x--14-14\1111-9--777-121212-1111111111111111-|
D-xxx-9-9-9--x--x--x-x--x--xxx-x-x-x--x-x-x-x-x-x-x-x--|
A-555--------12-12\9-9--7--555-101010-9-9-9-9-9-9-9-9--|
D------------------------------------------------------|

Guitar 2
E----------------------------|
B----------------------------|   x4
G----------------------------|
D-00000--0-0-0-0--0-0--00000-|
A-00000--0-0-0-0--0-0--00000-|
D-00000--0-0-0-0--0-0--00000-|


Verse 1

Guitar 1 (playing Intro Riff)

Guitar 2
E---------------------------------------------------------------------|
B---------------------------------------------------------------------|   
G---------------------------------------------------------------------|
D-0>------------------------------------------------------------------|
A-0>----55-555-5/10>-\9>--\7>--\5>---/10-10-1010101010101010-77777777-|
D-0>------------------------------------------------------------------|


Bridge

Guitar 1
E--------------------------------------------------------------------|
B--------------------------------------------------------------------|
G-4-6-7777777-12-12^12^12-1212121212121212-1111111111111111-77777777-|
D-x-x-xxxxxxx-x--x--x--x--x-x-x-x-x-x-x-x--x-x-x-x-x-x-x-x--xxxxxxxx-|
A-2-4-5555555-10-10-10-10-1010101010101010-1010101010101010-55555555-|
D--------------------------------------------------------------------|

E-----------------------------------------------------------------|
B-----------------------------------------------------------------|
G-7777-1112-14-77777777-77777777-7777-14-12-7777-1414141414141414-|
D-xxxx-x-x--x--xxxxxxxx-xxxxxxxx-xxxx-x--x--xxxx-x-x-x-x-x-x-x-x--|
A-5555-9-10-12-55555555-55555555-5555-12-10-5555-1212121212121212-|
D-----------------------------------------------------------------|

E------------------------------------------------------|
B------------------------------------------------------|
G-1212121212121212-77777777-77777777-77777777-77777777-|
D-x-x-x-x-x-x-x-x--xxxxxxxx-xxxxxxxx-xxxxxxxx-xxxxxxxx-|
A-1010101010101010-55555555-55555555-55555555-55555555-|
D------------------------------------------------------|

Guitar 2
E-----------------------------------------|
B-----------------------------------------|
G-2-4-44444444-22222222-------------------|
D-2-4-44444444-22222222-55555555-00000000-|
A-0-2-22222222-00000000-55555555-00000000-|
D-----------------------55555555-00000000-|

E-------------------------------------|
B-------------------------------------|
G-------------------------------------|
D-55555555-00000000-55555555-77777777-|
A-55555555-00000000-55555555-77777777-|
D-55555555-00000000-55555555-77777777-|

E-------------------------------------|
B-------------------------------------|
G-44444444-22222222-------------------|
D-44444444-22222222-55555555-00000000-|
A-22222222-00000000-55555555-00000000-|
D-------------------55555555-00000000-|

E----------------------|
B----------------------|
G-7\-------------------|
D-7\-------------------|
A-5\-------------------|
D----------------------|

                      
Chorus

Guitar 1
E------------------|
B------------------|
G------------------|
D------------------|
A-<>----|
D------------------|

E-------------------------------------|
B-------------------------------------|
G----------44444444-------------------|
D-00000000-44444444-44444444-77777777-|
A-00000000-22222222-44444444-77777777-|
D-00000000----------44444444-77777777-|
                                           x2
                   ..     ..      ..                                              
E---------------------------------------|
B---------------------------------------|
G---------------------------------------|
D-5555555/99999999-77-7-7-77-7-77-77-77-|
A-5555555/99999999-77-7-7-77-7-77-77-77-|
D-5555555/99999999-77-7-7-77-7-77-77-77-|
                   ..     ..      ..

Guitar 2
E-------------|
B-10-10-10-10-| <-------------------0-0--0-0--0-0--0-0--0-0--0-0--0-0--0-0-|
A-0>-------------------0-0--0-0--0-0--0-0--0-0--0-0--0-0--0-0-|
D-0>-------------------0-0--0-0--0-0--0-0--0-0--0-0--0-0--0-0-|
                       . .  . .  . .  . .  . .  . .  . .  . .


<>


Outro
E------------------------------------|
B------------------------------------|
G------------------------------------|
D-0>------------0>-------------------|
A-0>------------0>-------------------|
E-0>------------0>-------------------|

E-----0-----------0-------------0-------------0------------0-----------0-|
B--10----10-10-10----10-10--10----10--10--10-------10-10-10----10-10-10--|
G-7--7-----7--7--7-----7--11--11----11--11--11---11--0--0-----0--0--0----|
D------------------------------------------------------------------------|
A------------------------------------------------------------------------|
D------------------------------------------------------------------------|

E------------0--------------0---------|
B-10-10--10-----10--10--10-----10--10-|
G---0--11--11-----11--11--11-----11---|
D-------------------------------------|
A-------------------------------------|
D-------------------------------------|

E----------------------------|
B----------------------------|   x4
G----------------------------|
D-00000--0-0-0-0--0-0--00000-|
A-00000--0-0-0-0--0-0--00000-|
D-00000--0-0-0-0--0-0--00000-|



            
            
Suggest correction
Creating personal tab
Creating personal tab
You can edit any tab online and save it as your Personal.

You can edit, replace or remove any tab part or add personal notes – all changes will be seen only by you.

Personal tabs can be accessed anytime from any device, even offline.
Learn more »
Give kudos to tab author, rate the tab!
1 2 3 4 5
comments
print report bad tab
2 comments total.
0 reply
pnkr0cker 2,033 Feb 08, 2007 12:47 PM

im making an extremely close or 100% close to perfect tab to thriller. its only for guitar pro tho sorry. its way too complicated to text tab. and no offense to u dude. but it smokes all of these tabs. it should be up tommorow.

0 reply
pnkr0cker 2,033 May 19, 2007 06:52 AM

check out my text version. its the fourth

guest
You may want to rate the tab now too:
select rating
Wanna post a correction for this tab? Suggest correction