Oops, an error
Loading. Please wait.
We have an official Thriller tab made by UG professional guitarists. Check out the tab »
×
1,540 views 1 this week
no commentswrite comment
1 2 3 4 5
2 more votes to show rating
add to favorites
×
Save as Personal and add changes to this tab that will be seen only by you. Learn more ›
×
You can save this tab as Personal to edit and correct it or add notes. All changes will be seen only by you. Learn more »
launch autoscroll
font size
0
reset
how to read this tab
guitar tuner
edit
Autoscroll
slow
fast
+/-
esc
set tempo
stop
this song is the opening song for infinity on high and live in pheonix
and we play it like this in my band
Enjoy!!



(intro part 1)
e]-----------0-------------------0-------------------0------------------0-]
B]-----10-------10----10----10------10----10----10------10---10---10------]
G]------------------------------------------------------------------------]
D]--12----12------12----12----12------12----11----11------11---11----11---]
A]------------------------------------------------------------------------]
E]------------------------------------------------------------------------]

e]------------------0-----------------0-------------------0----------]
B]--10----10---10------10---10---10------10---10----10-------10----10]
G]-----------0----0-------0----0----0-------0------------------------]
D]-----11----------------------------------------11----11------11----]
A]-------------------------------------------------------------------]
E]-------------------------------------------------------------------]

e]-----------0-----------]
B]-----10-------10----10-]
G]-----------------------]
D]--11----11-------11----]  (reapeat as much as needed)
A]-----------------------]
E]-----------------------]
(intro part 2)
e]-----------------------------------------------------------]
B]-----------------------------------------------------------]
G]-----------------------------------------------------------] (x2)
D]--7-7-7---14-14-14---11---5---7---7-7-7---12-12-12-11------]
A]--7-7-7---14-14-14---11---5---7---7-7-7---12-12-12-11------]
E]--5-5-5---12-12-12----9---7---5---5-5-5---10-10-10-9-------]

(verse 1: part 1 [play intro part 1])

Last summer we took threes across the board
But by fall we were a cover story "now in stores"

(bridge 1 [play intro part 2])

Make us poster boys for your scene 
But we are not making an acceptance speech 
I found the safest place to keep all our old mistakes 
Every dot com's refreshing for a journal update 

(chorus)
e]-----------------------------------------------------------------]
B]-----------------------------------------------------------------]
G]-----------------------------------------------------------------]
D]-0-0-0-0-0-0-0-0-9-9-9-9-9-9-9-9-4-4-4-4-4-4-4-4-7-7-7-7-7-7-7-7-]
A]-0-0-0-0-0-0-0-0-9-9-9-9-9-9-9-9-4-4-4-4-4-4-4-4-7-7-7-7-7-7-7-7-]
E]-x-x-x-x-x-x-x-x-7-7-7-7-7-7-7-7-2-2-2-2-2-2-2-2-5-5-5-5-5-5-5-5-]

e]-----------------------------------------------------------------]
B]-----------------------------------------------------------------]
G]-----------------------------------------------------------------]
D]-5-5-5-5-5-5-5-5-9-9-9-9-9-9-9-9--7--7-7--7-7-7------------------]
A]-5-5-5-5-5-5-5-5-9-9-9-9-9-9-9-9--7--7-7--7-7-7------------------]
E]-3-3-3-3-3-3-3-3-7-7-7-7-7-7-7-7--5--5-5--5-5-5------------------]

So long live the car crash hearts 
Cry on the couch all the poets come to life 
Fix me in 45 

So long live the car crash hearts 
Cry on the couch all the poets come to life 
Fix me in 45 

(verse 2 [play intro 1])
I can take your problems away with a nod and a wave
Of my hand, 'cause that's just the kind of boy that I am 

(bridge 2 [play intro 2])

The only thing I haven't done yet is die
And it's me and my plus one at the afterlife 
Crowds are won and lost and won again
But our hearts beat for the diehards

(chorus [play chorus])

So long live the car crash hearts 
Cry on the couch all the poets come to life 
Fix me in 45 

So long live the car crash hearts 
Cry on the couch all the poets come to life 
Fix me in 45 

(brakedown [play intro 1])

Long live the car crash hearts
(Long live the car crash hearts)
Long live the car crash hearts
(Long live the car crash hearts)

(outro chorus [play intro 1]

Long live the car crash hearts
Cry on the couch all the poets come to life 
Fix me in 45

outro: play intro 2

            
            
Suggest correction
Creating personal tab
Creating personal tab
You can edit any tab online and save it as your Personal.

You can edit, replace or remove any tab part or add personal notes – all changes will be seen only by you.

Personal tabs can be accessed anytime from any device, even offline.
Learn more »
Give kudos to tab author, rate the tab!
1 2 3 4 5
comments
print report bad tab
guest
Wanna post a correction for this tab? Suggest correction