Oops, an error
Loading. Please wait.

Tiffany Blews bass

version 1
version 1

Whole song

Interactive

15,918 views 21 this week
8 commentsread comments
1 2 3 4 5
x 30
add to favorites
×
Save as Personal and add changes to this tab that will be seen only by you. Learn more ›
×
You can save this tab as Personal to edit and correct it or add notes. All changes will be seen only by you. Learn more »
launch autoscroll
font size
0
reset
guitar tuner
edit
Autoscroll
slow
fast
+/-
esc
set tempo
stop
-------------------------------------------------------------------------------
			     Tiffany Blews - Fall Out Boy
-------------------------------------------------------------------------------

Tabbed By : Valerie L
e-mail: queefist@yahoo.com
Tuning: standard

Intro
G|-------------------------|
D|-------------------------|
A|--------------646----6\--|
E|-424----646--------------|

Verse "I'm not a crybaby..."  follow the guitar or drum for the rhythm
G|----------------------------|
D|----------------------------|
A|----------------66-4-6--66--|
E|-4-2-4--66-4-6--------------|

G|-------------------------------|
D|-------------------------------|
A|----------------66-4-6--66-4-6-|
E|-4-2-4--66-4-6-----------------| x4

pre-chorus "my friends all lie and say"
G|-------------------------------------------|
D|-------------------------------------------|
A|-------------------------------------------|
E|00000000-22222222-4444444444444444-00000000|

Chorus "Oh baby you're a classic, just like a little black dress." x2
G|----------------------------------------------------------------------------|
D|--------------------------------------------------------------------2221----|
A|------------------22222222----24-4p2-------------------------------------4-2|
E|44444444-00000000----------24--------00000000-44444444-22222222-0000--------|

Verse "I can make your heart slow.."
G|---------------------------|
D|---------------------------|
A|----------------66-4-6--66-|
E|-4-2-4--66-4-6-------------|

G|-------------------------------|
D|-------------------------------|
A|----------------66-4-6--66-4-6-|
E|-4-2-4--66-4-6-----------------|

pre-chorus x1
chorus x2

right after chorus open e, let ring once.
G|---------------|
D|---------------|
A|---------------|
E|--0~-----------|

pre-chorus "they say they only want the best wishes for me.."
G|-------------------------------------------------------|
D|-------------------------------------------------------|
A|-------------------------------------------------------|
E|00000000-22222222-4444444444444444-00000000-4-4-4--12\-|

Chorus "oh baby you're a classic
G|-------------------------------------------------------------------|
D|------------------------------------------------------------2221---|
A|---------22222222----24--4p2------------------------------------42-|
E|00000000----------24---------00000000-44444444-22222222-0000-------|x2

G|------------------|
D|------------------|
A|------------------|
E|-0~-----0~--------|


I'd really appreciate it if you rated my tabs. 
Tell me how i'm doin! :)

            
            
Suggest correction
Creating personal tab
Creating personal tab
You can edit any tab online and save it as your Personal.

You can edit, replace or remove any tab part or add personal notes – all changes will be seen only by you.

Personal tabs can be accessed anytime from any device, even offline.
Learn more »
comments
print report bad tab
8 comments total. Showing first comments.
0 reply
aussieboy 10 Dec 10, 2008 01:35 AM

hey good tab.......i didnt know it was out yet....good tab anywaay...great song too

+1 reply
LittleQueefGirl 795 Dec 10, 2008 08:41 AM

rate please? :)

0 reply
caarrlii. 10 Dec 18, 2008 05:16 PM

Hey, thanks for putting the bass tabs out on some of the new songs from Folie A Deux, they are done really well, too.
I will rate :)

guest
You may want to rate the tab now too:
select rating
Wanna post a correction for this tab? Suggest correction