Oops, an error
Loading. Please wait.

Tiffany Blews tab

version 1
version 1

Whole song

Interactive

21,797 views 12 this week
8 commentsread comments
1 2 3 4 5
x 24
add to favorites
×
Save as Personal and add changes to this tab that will be seen only by you. Learn more ›
×
You can save this tab as Personal to edit and correct it or add notes. All changes will be seen only by you. Learn more »
launch autoscroll
font size
0
reset
how to read this tab
guitar tuner
edit
Autoscroll
slow
fast
+/-
esc
set tempo
stop
-------------------------------------------------------------------------------
                            Tiffany Blews - Fall Out Boy
-------------------------------------------------------------------------------
Tabbed by: Kevin Heiland
Email: kevin.heiland@gmail.com

Tuning:Standard

Thanks to those who got bass tabs out first; gives us all a good head start!

Verse:

e|--------------------------------|------------------------------------------|
B|--------------------------------|o----------------------------------------o|
G|--------------------------------|------------------------------------------|
D|--------------------------------|------------------------------------------|
A|------------------66-4-6-6\-----|o------------------66-4-6--66-4-6--66-66-o|
E|--4-2-4---66-4-6----------------|----4-2-4--66-4-6-------------------------|

Pre-Chorus: "My friends all lie and say..."

e|---------------------------------------------------------------------------|
B|---------------------------------------------------------------------------|
G|---------------------------------------------------------------------------|
D|-22222222-44444444-66666666-66666666-22222222------------------------------|
A|-22222222-44444444-66666666-66666666-22222222------------------------------|
E|-00000000-22222222-44444444-44444444-00000000------------------------------|

Chorus: "And oh, baby, you're a classic, like a little black dress..."

e|--------------------------------------------------------------------------------|
B|--------------------------------------------------------------------------------|
G|-------------------44444444-----------------------------------------------------|
D|-66666666-22222222-44444444-----------22222222-66666666-44444444-2222-2-1-------|
A|-66666666-22222222-22222222-----2-4-2-22222222-66666666-44444444-2222-----4--2--|
E|-44444444-00000000----------2-4-------00000000-44444444-22222222-0000-----------|

Verse x1

Pre-Chorus x1

Chorus x2



e|-------------------|
B|-------------------|
G|-------------------|
D|-2~----------------|
A|-2~--2-1-----------|
E|-0~------2-2-4-----|

Pre-Chorus x1

Modified Chorus:

e|-------------------------------------------------------------------------------|
B|-------------------------------------------------------------------------------|
G|------------------44444444-----------------------------------------------------|
D|-2-2-2-2-22222222-44444444-----------22222222-66666666-44444444-2222-2-1-------|
A|-2-2-2-2-22222222-22222222-----2-4-2-22222222-66666666-44444444-2222-----4--2--|
E|-0-0-0-0-00000000----------2-4-------00000000-44444444-22222222-0000-----------|
   . .   .

| .  palm mute
| /  slide up
| \  slide down
| h  hammer-on
| p  pull-off
| ~  vibrato
| +  harmonic
| x  Mute note
===============================================================================

            
            
Suggest correction
Creating personal tab
Creating personal tab
You can edit any tab online and save it as your Personal.

You can edit, replace or remove any tab part or add personal notes – all changes will be seen only by you.

Personal tabs can be accessed anytime from any device, even offline.
Learn more »
comments
print report bad tab
8 comments total. Showing first comments.
0 reply
TinselTown 36 Jan 23, 2009 12:18 AM

Nice tab. Some things i picked up although i may be entirely wrong was:
In the modified chorus, the palm mutes i think should be G#
After the sort of mini-rap by lil-wayne and friends, the prechorus is repeated.
Just before the mini-rap, instead of
e|-------------------| e|-------------------|
B|-------------------| B|-------------------|
G|-------------------| = G|-------------------|
D|-2~----------------| D|-2~----------------|
A|-2~--2-1-----------| A|-2~--2-1-----------|
E|-0~------2-2-4-----| E|-0~------4-2-4-----|

And the ending should be something like

D|-2~--2-2-2~---------|
A|-2~--2-2-2~---------|
E|-0~--0-0-0~---------|
. .
Then again, i could be incredibly wrong.

0 reply
TinselTown 36 Jan 23, 2009 12:21 AM

e|--------------------------------------------------------------------------------|
B|--------------------------------------------------------------------------------|
G|-------------------44444444-----------------------------------------------------|
D|-66666666-22222222-44444444-----------22222222-66666666-44444444-2222-2-1-------|
A|-66666666-22222222-22222222-----2-4-2-22222222-66666666-44444444-2222-----4--2--|
E|-44444444-00000000----------2-4-------00000000-44444444-22222222-0000-----------|
these notes sound like
F/#, G#, B, E, D#
well that's the way it sounds to me

0 reply
TinselTown 36 Jan 23, 2009 12:22 AM

by "these notes" i meant the notes after B chord
and sorry for the many comments, it turned out wrong.

guest
You may want to rate the tab now too:
select rating
Wanna post a correction for this tab? Suggest correction