Oops, an error
Loading. Please wait.

Twin Skeletons Hotel In Nyc chords

version 4
version 4

Whole song

271 views 3 this week
1 commentread comment
1 2 3 4 5
1 last vote to show rating
add to favorites
×
Save as Personal and add changes to this tab that will be seen only by you. Learn more ›
×
You can save this tab as Personal to edit and correct it or add notes. All changes will be seen only by you. Learn more »
launch autoscroll
font size
0
reset
transpose
0
reset
display chords
guitar tuner
edit
Autoscroll
slow
fast
+/-
esc
set tempo
stop
Author
Difficulty
Strumming
There is no strumming pattern for this song yet. and get +5 IQ
In the song all the chords are played as power chords, mostly rooted on the A string and the higher 
frets of the E sting - listen to it and you'll know what I mean
Also listen to the song for timings etc, and if you think something should be changed leave a comment:)

[PALM MUTING ON ALL CHORDS]

[Intro]
  
          Dm                 A 
There's a room in a hotel in New York City
     C                    Gm               
That shares our fate and deserves our pity
Bb                A
I don't want to remember it all
    C                      Dm        
The promises are made if you just hold on


     Bb   C
Hold on, 
     Dm    F
hold on, 
     Bb   C
hold on, 
     Dm
hold on


[RIFF]
e|---------------------------------------------------------------------------|
B|---------------------------------------------------------------------------|
G|-------------------------7-7-7-7-------------------------------------------|
D|-----------------7-7-7-7---------------------------------------------------|  x4
A|-5-5-5-5-8-8-8-8-----------------------------------------------------------|
E|---------------------------------------------------------------------------|

[HARMONY OF RIFF] 
e|----------------------------------10-10-10-10------------------------------|
B|-----------------------10-10-10-10-----------------------------------------|
G|------------10-10-10-10----------------------------------------------------|
D|-12-12-12-12---------------------------------------------------------------|
A|---------------------------------------------------------------------------|
E|---------------------------------------------------------------------------|

[verse]

N.C
And I just need enough of you to dull the pain
N.C
Just to get me through the night 'til we're twins again
N.C
'Till we're stripped down to our skeletons again
N.C
'Till we're saints just swimming in our sins again
   
              Dm
And there's a jet black crow droning on and on and on

Up above our heads droning on and on and on
Bb
Keep making trouble 'till you find what you love
         A                           C
I need a new partner in crime and you shrug

[Chorus]

          Dm                 A 
There's a room in a hotel in New York City
     C                    Gm               
That shares our fate and deserves our pity
Bb                A
I don't want to remember it all
    C                      Dm        
The promises I made if you just hold on

     Bb   C
Hold on, 
     Dm    F
hold on, 
     Bb   C
hold on, 
     Dm
hold on


[RIFF]
e|---------------------------------------------------------------------------|
B|---------------------------------------------------------------------------|
G|-------------------------7-7-7-7-------------------------------------------|
D|-----------------7-7-7-7---------------------------------------------------|  x4
A|-5-5-5-5-8-8-8-8-----------------------------------------------------------|
E|---------------------------------------------------------------------------|


[HARMONY OF RIFF] 
e|----------------------------------10-10-10-10------------------------------|
B|-----------------------10-10-10-10-----------------------------------------|
G|------------10-10-10-10----------------------------------------------------|
D|-12-12-12-12---------------------------------------------------------------|
A|---------------------------------------------------------------------------|
E|---------------------------------------------------------------------------|

[second verse]

N.C
A birth and a death on the same day
N.C
And honey I only appeared so I can fade away
N.C
I wanna throw my hands in the air and scream
N.C
And I could just die laughing on your spiral of shame

              
              Dm
And there's a jet black crow droning on and on and on

Up above our heads droning on and on and on
Bb
Hit it never quit it I have been through the wreck
          A
But I can string enough to show my face in the light again
************************************
| x   Dead note
| g   Grace note
| (n) Ghost note
| h   Hammer-on
| p   Pull-off
| r   Release
| >   Accented note
| t   Tapping
| b   Bend
| br  Bend release
| pb  Pre-bend
| pbr Pre-bend release
| /   Slide up
| \   Slide down
| ~   Vibrato
| s   Slap
| P   Pop
| PM  Palm mute
| TR  Trill
| N   Tremolo

************************************

            
            
Suggest correction
Creating personal tab
Creating personal tab
You can edit any tab online and save it as your Personal.

You can edit, replace or remove any tab part or add personal notes – all changes will be seen only by you.

Personal tabs can be accessed anytime from any device, even offline.
Learn more »
Give kudos to tab author, rate the tab!
1 2 3 4 5
comments
print report bad tab
1 comment total.
+1 reply
kaylahlinkiewicz40 10 Jul 21, 2016 06:25 AM

didn't like this contribution

guest
You may want to rate the tab now too:
select rating
Wanna post a correction for this tab? Suggest correction