Oops, an error
Loading. Please wait.
We have Chord Pro version of What A Catch Donnie.
It's the closest thing you can get to the original song and it has interactive parts. Check out the tab »
×
15,086 views 12 this week
2 commentsread comments
1 2 3 4 5
x 6
add to favorites
×
Save as Personal and add changes to this tab that will be seen only by you. Learn more ›
×
You can save this tab as Personal to edit and correct it or add notes. All changes will be seen only by you. Learn more »
launch autoscroll
font size
0
reset
guitar tuner
edit
Autoscroll
slow
fast
+/-
esc
set tempo
stop
Author
Song:What a Catch, Donnie "Featuring Elvis Costello, Gabe Saporta, Travis McCoy, Brendon 
Doug, Alex DeLeon, and William Beckett - 5:01"
Album:Folie à Deux
Artist:Fall Out Boy
Date Tabbed:November,2008
Guitar Tabber:Ryan Manongdo/18/Vancouver, Ca
              rhyezkie@gmail.com(gmail>alk)
              no_falter0x@yahoo.com(facebook,myspace,frndster,&YM)

  For any comments, questions, or suggestions; just post a comment,PM, or
mail me. Just listen to the song carefully to get the timing ang rhythm=)

Bass Legend:
/ - slide
h - hammer-on
. - palm muting
~ - let it ring

Bass Tuning:(Normal)Standard

Bass Enters:
Verse 1:You'll never catch us...
G|--------------------------------------------------------|
D|--------------------------------5-----------------------|
A|-----------------------7~---7-9----5555--7777-----------|
E|-0-2-5---5~--4~---2~--------------------------2222-55---|

Pre-Chorus:Miss Flack said...
G|---------------------------------------------------|
D|---------------------------------------------------|
A|-5555-7777------------7-5555--7777-----------------|
E|-----------2-Pause-----------------2~---5-4-3-2----|
             .

Chorus:I've got troubled...
G|--------------------------------------------------------------------------------|
D|-------------------------------3-------3/5-3--------3/5-3-----------------------|
A|-8-8/20---7-7/19--5555--33-3h5-----1-1---------0-0---------------3333----8-8/20-|
E|------------------------------------------------------------3333----------------|

-----------------------------------------------------|
---------------------3/5-3------3/5-3----------------|
-7777-5555-3333--1-1--------0-0------------3333-0~---|
--------------------------------------3333-----------|

Verse 2:They say the captain...
G|--------------------------------2-------------------------|
D|-----7--7~---6~---4~---2~---2-4---------------------------|
A|-7-9---------------------------------5555--7777-----------|
E|------------------------------------------------2222-55---|

Pre-Chorus:Miss Flack said...
G|-----------------------------------------------------|
D|-----------------------------------------------------|
A|-5555-7777----------7-5555--7777---------------------|
E|-----------2-Pause------------------2-2-2--5-4-3-2---|
                                      . . .

Repeat Chorus:

Bridge:Naa naa naa naa...                What a catch...
G|--------------------------------------------------------------------------------
D|--------------------------------------------------------------------------------
A|-----------------------77777-8-99999---44444-55555-77777-99999-1010101010-99999-
E|-5555-3333-2222-11111-----------------------------------------------------------

-------------------------|
-------------------------|
88888-0~-----------------|
---------------5-4-3-2---|

Repeat Chorus 4x:

End...

            
            
Suggest correction
Creating personal tab
Creating personal tab
You can edit any tab online and save it as your Personal.

You can edit, replace or remove any tab part or add personal notes – all changes will be seen only by you.

Personal tabs can be accessed anytime from any device, even offline.
Learn more »
comments
print report bad tab
2 comments total.
0 reply
Seanog182 30 Nov 08, 2008 06:24 AM

Very Accurate, Thanks.

0 reply
falloutboy96 50 Jul 05, 2009 04:15 PM

great tab dude

guest
You may want to rate the tab now too:
select rating
Wanna post a correction for this tab? Suggest correction