Oops, an error
Loading. Please wait.

Youre Crashing But Youre No Wave bass

version 1
version 1

Whole song

Interactive

3,740 views 1 this week
3 commentsread comments
1 2 3 4 5
x 4
add to favorites
×
Save as Personal and add changes to this tab that will be seen only by you. Learn more ›
×
You can save this tab as Personal to edit and correct it or add notes. All changes will be seen only by you. Learn more »
launch autoscroll
font size
0
reset
guitar tuner
edit
Autoscroll
slow
fast
+/-
esc
set tempo
stop
Author
Song: You're Crashing, But You're No Wave
Artist: Fall Out Boy
Tabbed By: Valerie L.
e-mail: iloled@yahoo.com
Standard tuning

Verse:
G|------------------------------------|    |--------------------|
D|------------------------------------|    |--------------------|
A|-5555555555555555-------------------|    |-5555555555555555---|
E|------------------66666666-33333333-| x2 |------------------6-|

"Everyone's looking for disbelief..."
Pre-Chorus repeat whole thing 2x:
G|----------------|    |-----------|
D|----------------|    |-----------|
A|-55-5-55-5-55-8-|    |-----------|
E|----------------| x3 |-3333-1111-| 

Chorus
G|-----------------------------------------|---------------------------------|
D|-----------------------------------------|---------------------------------|
A|-------------------------------------5-8-|---------------------------------|
E|-66666666-11111111-333333-5--6666-56-----|-66666666-11111111-333333-5-666-6|

Verse
G|----------------------------|    
D|----------------------------|    
A|-5555555555555555-----------|  
E|------------------66666666-3| 

G|------------------------------------|--------------------|
D|------------------------------------|--------------------|
A|-5555555555555555-------------------|-5555555555555555---|
E|------------------66666666-33333333-|------------------6-|

Pre-Chorus repeat whole thing 2x:
G|----------------|    |-----------|
D|----------------|    |-----------|
A|-55-5-55-5-55-8-|    |-----------|
E|----------------| x3 |-3333-1111-| 

Chorus x1

Bridge:
G|---------------------------------|    
D|---------------------------------|    
A|------------1-11-1-1-3-5-555-5--3|  
E|-3-33-3-3-1----------------------| x2

rest

Chorus x2

            
            
Suggest correction
Creating personal tab
Creating personal tab
You can edit any tab online and save it as your Personal.

You can edit, replace or remove any tab part or add personal notes – all changes will be seen only by you.

Personal tabs can be accessed anytime from any device, even offline.
Learn more »
comments
print report bad tab
3 comments total.
0 reply
decky123 31 Aug 15, 2007 06:19 AM

nice job but its tunned to drop D

0 reply
DarOmAnCeIsDeAd 10 Oct 26, 2008 04:05 AM

this is the only song i like on infinity on high it reminds me of old fall out boy

0 reply
FOB4life912 10 Apr 04, 2010 08:37 AM

the diversity of there albums just shows how versitile they are, but I agree, the old albums were much better

guest
You may want to rate the tab now too:
select rating
Wanna post a correction for this tab? Suggest correction