Oops, an error
Loading. Please wait.
We have an official Bad Girls Club tab made by UG professional guitarists. Check out the tab »
×
1,142 views 9 this week
1 commentread comment
1 2 3 4 5
x 4
add to favorites
×
Save as Personal and add changes to this tab that will be seen only by you. Learn more ›
×
You can save this tab as Personal to edit and correct it or add notes. All changes will be seen only by you. Learn more »
launch autoscroll
font size
0
reset
transpose
0
reset
display chords
guitar tuner
edit
Autoscroll
slow
fast
+/-
esc
set tempo
stop
Strumming
There is no strumming pattern for this song yet. and get +5 IQ
BAD GIRLS CLUB ACOUSTIC

C
I met a girl and I really thought she liked me
F
I truly thought I had met the one
Am             G
It was a fail, to no avail 
C
I'm just another victim of the bad girls club

C
She's like a witch, casting spells, hypnotizing
F 
She made me drink a potion just to fall in love
Am                G
She got me drunk, tipsy on her love
C
I'm just another victim of the bad girls club

C   F   Am   G   C   

             C
She's always blowing up my phone
                         F
I really wish that she'd leave me alone
  Am
I got to change my number
     G                            C
It's hard for me to slumber, when she's outside my home

C                                F
She called the cops, and made it seem like I was mean
Am                           G
She's not your average lady, she's fucking crazy
C
Spelled C-U-N-T - BITCH

    Am            G
And after all the rise and fall
F
You're not worth my time

                   C
I'm c-c-calling it quits
      F         Dm
Right now, this time
       G
You're playing games 
    C      F     Dm
And all we do is fight

     G               C              F
It's getting late so olly-olly-olly-oxen free
Dm                     G
All the bad girls come chill with me
C                    F
Love's a drug that's got me on the run

I'm just another victim of the bad girls club

C   F   Am   G   C  

           C
I'm always paranoid
           F
That she's somehow watching me
Am                     G
Follows me on twitter, asking if I miss her
C
Hashtag set me free

               C            F
She googles my name just to keep some tabs on me
Am                           G
She's not your average lady, she's fucking crazy
C
Someone help me please

    Am             G
And after all, the rise and fall
F
You're not worth my time

                   C
I'm c-c-calling it quits
      F         Dm
Right now, this time
       G
You're playing games 
    C      F     Dm
And all we do is fight

     G               C              F
It's getting late so olly-olly-olly-oxen free
Dm                     G
All the bad girls come chill with me
C                    F
Love's a drug that's got me on the run

I'm just another victim of the bad girls club

|-------------------------------------------------------------------------------------|
|-------------------------------------------------------------------------------------|
|------5--------5--------5--------5---------10----------10----------10----------10----|
|----5---5----5---5----5---5----5---5----10----10----10----10----10----10----10----10-|
|--3--------3--------3--------3--------8-----------8-----------8-----------8----------|
|-------------------------------------------------------------------------------------|

|-------------------------------------------------------------------------------|
|-------------------------------------------------------------------------------|
|-------------------------------------------5--------5--------5--------5--------|
|------7--------7--------5--------5-------5---5----5---5----5---5----5---5------|
|----7---7----7---7----5---5----5---5---3--------3--------3--------3------------|
|--5--------5--------3--------3-------------------------------------------------|

|-----------------------------------------------|
|-----------------------------------------------|
|------5--------5--------5--------5-------------|
|----5---5----5---5----5---5----5---5-----------|
|--3--------3--------3--------3-----------------|
|-----------------------------------------------|
Hey sexy boy I got you wrapped around my finger

|--------------------------------------------------|
|--------------------------------------------------|
|-------10----------10----------10----------10-----|
|----10----10----10----10----10----10----10----10--|
|--8-----------8-----------8-----------8-----------|
|--------------------------------------------------|
L-O-V-E really doesn't mean much

|------------------------------|
|------------------------------|
|------------------------------|
|------7--------7--------------|
|----7---7----7---7------------|
|--5--------5------------------|
Your love is like a drug

|----------------------------|
|----------------------------|
|----------------------------|
|------5--------5------------|
|----5---5----5---5----------|
|--3--------3----------------|
But it is not enough

|-----------------------------------------------|
|-----------------------------------------------|
|------5--------5--------5--------5-------------|
|----5---5----5---5----5---5----5---5-----------|
|--3--------3--------3--------3-----------------|
|-----------------------------------------------|
Give me a B-A-D were the bad girls club

|-----------------------------------------------|
|-----------------------------------------------|
|------5--------5--------5--------5-------------|
|----5---5----5---5----5---5----5---5-----------|
|--3--------3--------3--------3-----------------|
|-----------------------------------------------|
Hey sexy boy I got you wrapped around my finger

|--------------------------------------------------|
|--------------------------------------------------|
|-------10----------10----------10----------10-----|
|----10----10----10----10----10----10----10----10--|
|--8-----------8-----------8-----------8-----------|
|--------------------------------------------------|
L-O-V-E really doesn't mean much

|------------------------------|
|------------------------------|
|------------------------------|
|------7--------7--------------|
|----7---7----7---7------------|
|--5--------5------------------|
Your love is like a drug

|----------------------------|
|----------------------------|
|----------------------------|
|------5--------5------------|
|----5---5----5---5----------|
|--3--------3----------------|
But it is not enough

|-----------------------------------------------|
|-----------------------------------------------|
|------5--------5--------5--------5-------------|
|----5---5----5---5----5---5----5---5-----------|
|--3--------3--------3--------3-----------------|
|-----------------------------------------------|
Give me a B-A-D were the bad girls club

                   C
I'm c-c-calling it quits
      F         Dm
Right now, this time
       G
You're playing games 
    C      F     Dm
And all we do is fight

     G               C              F
It's getting late so olly-olly-olly-oxen free
Dm                     G
All the bad girls come chill with me
C                    F
Love's a drug that's got me on the run

I'm just another victim of the bad girls club
    F                                    Am   G
I'm just another victim of the bad girls club
C
I'm just another victim of the bad girls club

            
            
Suggest correction
Creating personal tab
Creating personal tab
You can edit any tab online and save it as your Personal.

You can edit, replace or remove any tab part or add personal notes – all changes will be seen only by you.

Personal tabs can be accessed anytime from any device, even offline.
Learn more »
comments
print report bad tab
1 comment total.
0 reply
23ciliacatello 10 Sep 24, 2017 11:33 AM

Awesome! You did a great job!

guest
You may want to rate the tab now too:
select rating
Wanna post a correction for this tab? Suggest correction