Oops, an error
Loading. Please wait.
We have an official The Drug In Me Is You tab made by UG professional guitarists. Check out the tab »
×
2,220 views 9 this week
no commentswrite comment
1 2 3 4 5
1 last vote to show rating
add to favorites
×
Save as Personal and add changes to this tab that will be seen only by you. Learn more ›
×
You can save this tab as Personal to edit and correct it or add notes. All changes will be seen only by you. Learn more »
launch autoscroll
font size
0
reset
guitar tuner
edit
Autoscroll
slow
fast
+/-
esc
set tempo
stop
Raised by Wolves

0:11
F|----------------------------------------------------------------------|
C|----------------------------------------------------------------------|
G|--------------------------------------3-3-----------------------------|
C|-12-\-2-2-------------------------------------------------------------|

F|-----------------------------------------------------------------|
C|-----------------------------------------------------------------|
G|-5-5-----------3-------3-2---------------------------------------|
C|---------------------------------2-2-2-2-2-2-2-2-2-2-2-2-2-2-0---|

0:23
F|-----------------------------------------------------------------|
C|-----------------------------------------------------------------|
G|-------------------------0-0-----3---3-3---3-----3-3-2---3-2-----|
C|-2-2-----4-4-----5-5---------------------------------------------|

F|-----------------------------------------------------------------|
C|-----------------------------------------------------------------|
G|-------------------------0-0-----2---2-2-2-2-2-2-6-6-6-6-6-6-6-3-|
C|-2-2-----4-4-----5-5---------------------------------------------|

0:35
F|-----------------------------------------------------------------|
C|-----------------------------------------------------------------|
G|---3-3-3-3-3-3-3-2-2-2-2-2-2-2---------------------------------3-|
C|-------------------------------2---2-2-2-2-2-2-2-4-4-4-4-5-5-5---|

F|-----------------------------------------------------------------|
C|-----------------------------------------------------------------|
G|---3-3-3-3-3-3-3-5-5-5-5-5-5-5---------------------------------3-|
C|-------------------------------2---2-2-2-2-2-2-2-4-4-4-4-5-5-5---|

0:46
F|-----------------------------------------------------------------|
C|-----------------------------------------------------------------|
G|---3-3-3-3-3-3-3-2-2-2-2-2-2-2-5---5-5-5-5-5-5-5-7-7-7-7-7-7-7-3-|
C|-----------------------------------------------------------------|

F|-----------------------------------------------------------------|
C|-----------------------------------------------------------------|
G|---3-3---3-----3-3---3---3-----6---6-6---6-----6-2---2-----------|
C|-----------------------------------------------------------------|

F|-----------------------------------------------------------------|
C|-----------------------------------------------------------------|
F|-------------------------0---------------------------------------|
C|-2---0-2-4---2-4-5---4-5-----5-4-------------------------------2-|

1:01
F|-----------------------------------------------------------------|
C|-----------------------------------------------------------------|
F|-------------------------------3---3-3-3-3-3-3-3-3-3-3-3-3-3-3-5-|
C|---2-2-2-2-2-2-2-2-2-2-2-2-2-2-----------------------------------|

F|-----------------------------------------------------------------|
C|-----------------------------------------------------------------|
F|---5-5-5-5-5-5-3---3-3-3-3-2-------------------------------5---7-|
C|-----------------------------5-2---2-2-2-2-2-2-2-2-2-2-2-2-------|

1:13
F|------------------------------------------------------------------|
C|-------------------------------5---555-555-555-555-555-10-9-5-7---|
G|---777-777-777-777-777-777-777------------------------------------|
C|------------------------------------------------------------------|

F|------------------------------------------------------------------|
C|---777-777-777-5---555-555-10-9-5---------------------------------|
G|----------------------------------7---777-777-777-777-777-777-5---|
C|------------------------------------------------------------------|

1:24
F|-----------------------------------------------------------------|
C|-----------------------------------------------------------------|
G|-------------------------0-0-----3---3-3---3-----3-3-2---3-2-----|
C|-2-2-----4-4-----5-5---------------------------------------------|

F|-----------------------------------------------------------------|
C|-----------------------------------------------------------------|
G|-------------------------0-0-----2---2-2-2-2-2-2-6-6-6-6-6-6-6-3-|
C|-2-2-----4-4-----5-5---------------------------------------------|

1:35
F|-----------------------------------------------------------------|
C|-----------------------------------------------------------------|
G|---3-3-3-3-3-3-3-2-2-2-2-2-2-2---------------------------------3-|
C|-------------------------------2---2-2-2-2-2-2-2-4-4-4-4-5-5-5---|

F|-----------------------------------------------------------------|
C|-----------------------------------------------------------------|
G|---3-3-3-3-3-3-3-5-5-5-5-5-5-5---------------------------------3-|
C|-------------------------------2---2-2-2-2-2-2-2-4-4-4-4-5-5-5---|

1:46
F|-----------------------------------------------------------------|
C|-----------------------------------------------------------------|
G|---3-3-3-3-3-3-3-2-2-2-2-2-2-2-5---5-5-5-5-5-5-5-7-7-7-7-7-7-7-3-|
C|-----------------------------------------------------------------|

F|-----------------------------------------------------------------|
C|-----------------------------------------------------------------|
G|---3-3---3-----3-3---3---3-----6---6-6---6-----6-2---------------|
C|-----------------------------------------------------------------|

1:58
F|-----------------------------------------------------------------|
C|-----------------------------------------------------------------|
G|---------------------------------0-0-----------------------------|
C|-2-2-------------------------------------------------------------|

F|-----------------------------------------------------------------|
C|-----------------------------------------------------------------|
G|-5-5-------------------------------------------------------------|
C|---------------------------------5-5---------------------111-111-|

2:09
F|-----------------------------------------------------------------|
C|-----------------------------------------------------------------|
G|---------------------------------00--00----000----00--00--000----|
C|-22--22----222---2222222-222-------------------------------------|

F|-----------------------------------------------------------------|
C|-----------------------------------------------------------------|
G|-55--55-55-5-5---555-5-5-555-------------------------------------|
C|---------------------------------55--55----555---111-111---------|

2:21
F|-----------------------------------------------------------------|
C|-----------------------------------------------------------------|
G|-----------------------------------------------------------------|
C|-2-------3p2-----222-2-3-2-1-----2-------3p2-----111-111-3-2-----|

F|-----------------------------------------------------------------|
C|-----------------------------------------------------------------|
G|---------------------------------------------------------------3-|
C|-222222223p2-----2222223-2-1-----222222223p2-----222-222-3-2-1---|

F|-----------------------------------------------------------------|
C|-----------------------------------------------------------------|
F|-------------------------2---------------------------------------|
C|---------------------------------2---------------4-------5-------|

Rest

2:39
F|-------------------------------------------------------------------|
C|-------------------------------------------------------------------|
G|-3---3-3-3-3-3-3-3-2-2-2-2-2-2-2---------------------------------3-|
C|---------------------------------2---2-2-2-2-2-2-2-4-4-4-4-5-5-5---|

F|-----------------------------------------------------------------|
C|-----------------------------------------------------------------|
G|---3-3-3-3-3-3-3-5-5-5-5-5-5-5---------------------------------3-|
C|-------------------------------2---2-2-2-2-2-2-2-4-4-4-4-5-5-5---|

2:50
F|-----------------------------------------------------------------|
C|-----------------------------------------------------------------|
G|---3-3-3-3-3-3-3-2-2-2-2-2-2-2-5---5-5-5-5-5-5-5-7-7-7-7-7-7-7-3-|
C|-----------------------------------------------------------------|

F|-----------------------------------------------------------------|
C|---------------------------------------------------------------2-|
G|---3-3---3-----3-3---3---3-----5---5-5---5-----5-5---5---5-------|
C|-----------------------------------------------------------------|

F|-----------------------------------------------------------------|
C|---2-2---2-----2-2---2---2-------4-4-4-4-4-4-4-4/9-9-9-9-9-9-9-9-|
G|-----------------------------------------------------------------|
C|-----------------------------------------------------------------|

3:07
F|-----------------------------------------------------------------|
C|-----------------------------------------------------------------|
G|-----------------------------------------------------------------|
C|-2-------3p2-----222-2-3-2-1-----2-------3p2-----111-111-3-2-----|

F|-----------------------------------------------------------------|
C|-----------------------------------------------------------------|
G|-----------------------------------------------------------------|
C|-222222223p2-----2222223-2-1-----222222223p2-----222-222-3-2-1---|

Tragic magic 

Intro 0:02
F|-------------------------------------------------|
C|-------------------------------------------------|
G|-8\--------1(x8)-1-1-0-1-------4(x8)----------33-|
C|----3(x16)---------------5(x8)--------3(x12)-----|

F|------------------------------------------------|
C|------------------------------------------------|
G|--------1(x8)-1-1-0-1-------4(x8)--------00--33-|
C|-3(x16)---------------5(x8)-------3(x8)---------|

Verse 0:28
F|---------------------------------------------------------------------|
C|---------------------------------------------------------------------|
G|-5-------1---0----44-44-5(x16)--------1(x16)-0(x8)-/88887777-1--xxxx-|
C|-----3-------------------------3(x16)--------------------------------|

Chorus 0:55
F|------------------------------------------|
C|------------------------------------------|
G|--------1(x12)-0-1-------4(x8)---------33-|
C|-3(x16)------------5(x8)-------3(x12)-----|

F|---------------------------------------------|
C|---------------------------------------------|
G|--------1(x12)-0-1-------4(x8)--------00--33-|
C|-3(x16)------------5(x8)-------3(x8)---------|

La La La 1:21
F|----------------------------------------------|
C|----------------------------------------------|
G|---------1(x15)---------4(x7)---------0000033-|
C|-3(x15)----------5(x7)---------3(x7)----------|

Verse 1:33
F|----------------------------------------------------------------------|
C|----------------------------------------------------------------------|
G|-5-------1---0---444-------------------1(x16)-0(x8)-/88887777-1--xxxx-|
C|-----3--------------/11\-0(x16)-3(x16)--------------------------------|

Chorus 2:00
F|------------------------------------------|
C|------------------------------------------|
G|--------1(x12)-0-1-------4(x8)---------33-|
C|-3(x16)------------5(x8)-------3(x12)-----|

F|---------------------------------------------|
C|---------------------------------------------|
G|--------1(x12)-0-1-------4(x8)--------00--33-|
C|-3(x16)------------5(x8)-------3(x8)---------|

La La La 2:25
F|-----------------------------------------------------------------|
C|-----------------------------------------------------------------|
G|-----------------11------------------------------------------8-\-|
C|-33------------------------------55--------------33--------------|

F|-----------------------------------------------------------------|
C|-----------------------------------------------------------------|
G|-----------------11------------------------------------------8-\-|
C|-33------------------------------55--------------33--------------|

Breakdown 2:49
F|-----------------------------------------------------------------------------------|
C|-----------------------------------------------------------------------------------|
G|---------------------1--1111111-1--11-11-------------4-4--44-44--------------------|
C|-3--3333333-3--33-33---------------------5-55-555555------------3--3333333-3-3--1~~|

F|---------------------------------------------------------------------------------|
C|---------------------------------------------------------------------------------|
G|---------------------1~~1111111~1~~11~11~----------4r4r-44r44r-------------------|
C|-3~~3333333~3~~33~33~--------------------5~~555555~-----------3~~3333333~3~3~~1~~|

Chorus 3:15
F|-----------------------------------------------------------------------------------|
C|-----------------------------------------------------------------------------------|
G|---------------------1--1111111-1--11-11-------------4-4--44-44--------------------|
C|-3--3333333-3--33-33---------------------5-55-555555------------3--3333333-3-3--1~~|

F|-----------------------------------------------------------------------------------|
C|-----------------------------------------------------------------------------------|
G|---------------------1--1111111-1--11-11-------------4-4--44-44--------------------|
C|-3--3333333-3--33-33---------------------5-55-555555------------3--3333333-3-3--1~~|

F|---------------------------------------------------------------------------------|
C|---------------------------------------------------------------------------------|
G|---------------------1----------1--------------------4---------------------------|
C|-3----------3----------------------------5----------------------3----------------|

The Drug in Me is You

F|-----------------------------------------------------------------|
C|-----------------------------------------------------------------|
G|-----------------------------5-\-1-1-----------------------------|
C|-0-----------------------------------------------------------10\-|

F|-----------------------------------------------------------------|
C|-----------------------------------------------------------------|
G|---------------------------------1---------------0-0-0-0-0-------|
C|-0---------------------------------------------------------------|

F|-----------------------------------------------------------------|
C|-----------------------------------------------------------------|
G|-----------------0-0-0-0-0-0-0-0-1-1-1-1-1-1-1-1---------------4-|
C|-0-0-0-0-0-0-0-0---------------------------------3-3-3-3-2-3-2---|

F|-----------------------------------------------------------------|
C|-----------------------------------------------------------------|
G|---------------------------------1-1-1-1-1-1-1-1-0-0-------------|
C|-0-0-0-0-0-0-0-0-2-2-2-2-2-2-2-2-------------------------5-5-----|

0:28
F|-----------------------------------------------------------------|
C|-------3-2-3-2-0-------3-2-3-2-0-------3-2-3-2-0-----------------|
G|---------------------------------1---------------0-----000-------|
C|-0---------------0-----------------------------------------5-3-2-|

F|-----------------------------------------------------------------|
C|-------3-2-3-2-0-------3-2-3-2-0-------3-2-3-2-0-----------------|
G|---------------------------------1---------------0---------------|
C|-0---------------0-----------------------------------------------|

0:40
F|-----------------------------------------------------------------|
C|-------332-3-2-0-------332-3-2-0-------332-3-2-0-----------------|
G|---------------------------------1---------------0-----000-------|
C|-0---------------0-----------------------------------------5-3-2-|

F|-----------------------------------------------------------------|
C|-------332-3-2-0-------332-3-2-0---------------------------------|
G|---------------------------------1---1---1---1---0---------------|
C|-0---------------0-----------------------------------------------|

0:54
F|------------------------------------------------------------------|
C|o-----------------------------------------------------------------|
G|o---------------------------------5-5-5-5-5-5-5-5-5-5-5-5-5-5-5-5-|
C|--3-3-3-3-3-3-3-3-3-3-3-3-3-3-3-3---------------------------------|

F|------------------------------------------------------------------|
C|---------------------------------------------------------0-0-2-2-o|
G|-0-0-0-0-0-0-0-0-0-0-0-0-0-0-0-0-1-1-1-1-1-1-1-1-1-1-3-3---------o|
C|------------------------------------------------------------------|

F|-----------------------------------------------------------------|
C|-----------------------------------------------------------------|
G|-----------------0-0-0-0-0-0-0-0-1-1-1-1-1-1-1-1-----------------|
C|-0-0-0-0-0-0-0-0---------------------------------3-3-3-3-2-------|

1:27
F|-----------------------------------------------------------------|
C|-------3-2-3-2-0-------3-2-3-2-0-------3-2-3-2-0-----------------|
G|---------------------------------1---------------0-----000-------|
C|-0---------------0-----------------------------------------5-3-2-|

F|-----------------------------------------------------------------|
C|-------3-2-3-2-0-------3-2-3-2-0-------3-2-3-2-0-----------------|
G|---------------------------------1---------------0---------------|
C|-0---------------0-----------------------------------------------|

1:40
F|------------------------------------------------------------------|
C|-------3-2-3-2-0-------332-3-2-0-------332-3-2-0------------------|
G|---------------------------------1---------------0-000-0-00-------|
C|-0---------------0-000-------------------------------------553322-|

F|-----------------------------------------------------------------|
C|-------3-2-3-2-0-------332-3-2-0-------332-3-2-0-----------------|
G|---------------------------------1---------------0-000-0-0-------|
C|-0---------------0-000-------------------------------------------|

1:54
F|------------------------------------------------------------------|
C|o-----------------------------------------------------------------|
G|o---------------------------------5-5-5-5-5-5-5-5-5-5-5-5-5-5-5-5-|
C|--3-3-3-3-3-3-3-3-3-3-3-3-3-3-3-3---------------------------------|

F|------------------------------------------------------------------|
C|---------------------------------------------------------0-0-2-2-o|
G|-0-0-0-0-0-0-0-0-0-0-0-0-0-0-0-0-1-1-1-1-1-1-1-1-1-1-3-3---------o|
C|------------------------------------------------------------------|

2:20
F|-----------------------------------------------------------------|
C|-----------------------------------------------------------------|
G|---------------------------------1-1-1-1-1-1-1-1---------0---0---|
C|-0-0-0-0-0-0-0-0-2-2-2-2-2-2-2-2-----------------3-3-3-3---------|

F|-----------------------------------------------------------------|
C|-----------------------------------------------------------------|
G|---------------------------------1-1-1-1-1-1-1-1-0-0-------------|
C|-0-0-0-0-0-0-0-0-2-2-2-2-2-2-2-2-------------------------5-5-----|

2:33
F|-----------------------------------------------------------------|
C|-----------------------------------------------------------------|
F|-----------------0-0-------------1-1-----------------------------|
C|-0-0---------------------------------------------5-5---------10\-|

F|-----------------------------------------------------------------|
C|-----------------------------------------------------------------|
F|-----------------0-0-------------1-1-----------------------------|
C|-0-0---------------------------------------------5-5-----7-7-\---|

2:47
F|-----------------------------------------------------------------|
C|-----------------------------------------------------------------|
G|---------------------------------5-5-5-5-5-5-5-5-5-5-5-5-5-5-5-5-|
C|-3-3-3-3-3-3-3-3-3-3-3-3-3-3-3-3---------------------------------|

F|-----------------------------------------------------------------|
C|---------------------------------------------------------0-0-2-2-|
G|-0-0-0-0-0-0-0-0-0-0-0-0-0-0-0-0-1-1-1-1-1-1-1-1-1-1-3-3---------|
C|-----------------------------------------------------------------|

3:00
F|-----------------------------------------------------------------|
C|-----------------------------------------------------------------|
G|-----------------------------3-3---------------------------------|
C|-3-3-3-3-3-3-3-3-3-3-2-2-0-0-----0-0-0-0-0-0-0-0-0-0-0-0-0-0-0-0-|

F|-----------------------------------------------------------------|
C|-----------------------------7---------------------------0-0-2-2-|
G|-0-0-0-0-0-0-0-0-0-0-0-0-0-7---7-1-1-1-1-1-1-1-1-1-1-3-3---------|
C|-----------------------------------------------------------------|

3:13
F|-----------------------------------------------------------------|
C|-----------------------------------------------------------------|
G|-----------------0-0-0-0-0-0-0-0-1-1-1-1-1-1-1-1---------------4-|
C|-0-0-0-0-0-0-0-0---------------------------------3-3-3-3-2-3-2---|

F|---------------------------------------------------------------------|
C|-------------------------------------------------3-3-3-3-2-3-2-------|
G|---------------------------------1-1-1-1-1-1-1-1---------------4-----|
C|-0-0-0-0-0-0-0-0-2-2-2-2-2-2-2-2---------------------------------0---|

I'm Not a Vampire 

0:04 Intro
F|--------------------------------------------------------------------|
C|--------------------------------------------------------------------|
G|-/7\-----------------00-000-000-000-033-333-333-333-322-222-222-222-|
C|-----22-222-222-222-2-----------------------------------------------|

F|-----------------------------------------------------------------------|
C|-----------------------------------------------------------------------|
G|-----------------00-000-000-000-033-333-333-333-322-222-2-222222222222-|
C|-22-222-222-222-2------------------------------------------------------|

0:26 Verse
F|-----------------------------------------------------------------|
C|-----------------------------------------------------------------|
G|-----------------00-000-000-000-033-333-333-333-322-222-222-222--|
C|-22-222-222-222-2------------------------------------------------|

F|-----------------------------------------------------------------------|
C|-----------------------------------------------------------------------|
G|-----------------00-000-000-000-033-333-333-333-322-222-2-222222222222-|
C|-22-222-222-222-2------------------------------------------------------|

F|-----------------------------------------------------------------|
C|-----------------------------------------------------------------|
F|-3-3-----5-5---------------------3-3-----5-5-----2-2-----3---5---|
C|-----------------2-2-----4-4-5-5---------------------------------|

0:56 Chorus
F|--------------------------------------------------------------------------|
C|--------------------------------------------------------------------------|
G|-------------------------0-00-00-00-00-00-00-00-03-33-33-33-33-33-33-33-3-|
C|-2-22-22-22-22-22-22-22-2-------------------------------------------------|

F|--------------------------|
C|--------------------------|
G|-2-22-22-22-2-------------|
C|-------------1-----1------|

F|--------------------------------------------------------------------------|
C|--------------------------------------------------------------------------|
G|-------------------------0-00-00-00-00-00-00-00-03-33-33-33-33-33-33-33-3-|
C|-2-22-22-22-22-22-22-22-2-------------------------------------------------|

F|--------------------------|
C|--------------------------|
G|-2-22-22-22-26-----6------|
C|--------------------------|

F|-----------------------------------------------------------------|
C|-----------------------------------------------------------------|
G|-----------------00-000-000-000-033-333-333-333-322-222-222-2222-|
C|-22-222-222-222-2------------------------------------------------|

1:28 Verse
F|-----------------------------------------------------------------|
C|-----------------------------------------------------------------|
G|-----------------00-000-000-000-033-333-333-333-322-222-222-222--|
C|-22-222-222-222-2------------------------------------------------|

C|-----------------------------------------------------------------------|
G|-----------------00-000-000-000-033-333-333-333-322-222-2-222222222222-|
C|-22-222-222-222-2------------------------------------------------------|

F|-----------------------------------------------------------------|
C|-----------------------------------------------------------------|
F|-3-3-----5-5---------------------3-3-----5-5-----2-2-----3---5---|
C|-----------------2-2-----4-4-5-5---------------------------------|

1:59 Chorus
F|--------------------------------------------------------------------------|
C|--------------------------------------------------------------------------|
G|-------------------------0-00-00-00-00-00-00-00-03-33-33-33-33-33-33-33-3-|
C|-2-22-22-22-22-22-22-22-2-------------------------------------------------|

F|--------------------------|
C|--------------------------|
G|-2-22-22-22-2-------------|
C|-------------1-----1------|

F|--------------------------------------------------------------------------|
C|--------------------------------------------------------------------------|
G|-------------------------0-00-00-00-00-00-00-00-03-33-33-33-33-33-33-33-3-|
C|-2-22-22-22-22-22-22-22-2-------------------------------------------------|

F|--------------------------|
C|--------------------------|
G|-2-22-22-22-26-----6------|
C|--------------------------|

2:19 Solo
F|-------------------------------------------------------|
C|-------------------------------------------------------|
G|------------------2-0-------------3-22-------532-------|
C|-22-----2-11----------5-4-55---------------54---54-----|

F|-------------------------------------------------------|
C|-------------------------------------------------------|
G|------------------2-0-------------3-22-----2223--2220--|
C|-22-----2-11----------5-4-55---------------------------|

2:40 Bridge
F|-------------------------------------------------------------------------|
C|-------------------------------------------------------------------------|
G|-0-00--0-00--0-00--0-00--3-33--3-33--3-33--3-33--------------------------|
C|-------------------------------------------------2-22--2-22--2-22--2-22--|

F|-------------------------------------------------------------------------|
C|-------------------------------------------------------------------------|
G|-5-55--5-55--5-55-55-55-50-00--0-00--0-00--0-00--3-33--3-33--3-33--3-33--|
C|-------------------------------------------------------------------------|

F|-------------------------------------------------|
C|-------------------------------------------------|
G|-7-77--7-77--7-77--7-77--6-66--6-66--6--6--------|
C|-------------------------------------------1--1--|

F|------------------------------------------------------------------|
C|------------------------------------------------------------------|
G|-------------------------0-0-----3-3-----2-2-----0-/-/-/-12-\-\-\-|
C|-2-2-----2-2-----2-2----------------------------------------------|

3:18 Chorus
F|--------------------------------------------------------------------------|
C|--------------------------------------------------------------------------|
G|-------------------------0-00-00-00-00-00-00-00-03-33-33-33-33-33-33-33-3-|
C|-2-22-22-22-22-22-22-22-2-------------------------------------------------|

F|--------------------------|
C|--------------------------|
G|-2-22-22-22-2-------------|
C|-------------1-----1------|

F|--------------------------------------------------------------------------|
C|--------------------------------------------------------------------------|
G|-------------------------0-00-00-00-00-00-00-00-03-33-33-33-33-33-33-33-3-|
C|-2-22-22-22-22-22-22-22-2-------------------------------------------------|

F|--------------------------|
C|--------------------------|
G|-2-22-22-22-26-----6------|
C|--------------------------|

3:38
F|-------------------------------------------------------------------------|
C|-------------------------------------------------------------------------|
G|-3-33--3-33--3-33--3-33--------------------------3-33--3-33--3-33--3-33--|
C|-------------------------2-22--2-22--2-22--2-22--------------------------|

F|----------------------------|
C|----------------------------|
G|-2-22--2-22--6-66--6666--7\-|
C|----------------------------|

Good Girls Bad Guys

Intro 0:10
F|-------------------|
C|-------------------|
G|-11111111-33333333-|
C|-------------------|

Pre Verse 0:14
F|-----------------------------------------------------|
C|---------------------3~------------------------------|
G|-5535--111-333-5535----4~-5535--11~-33~-5535-3~-3/7\-|
C|-----------------------------------------------------|

Verse 0:29
F|---------------------------------------------------|
C|---------------------3~-----------------------3~---|
G|-5535--111-333-5535----4~-5535--11~-33~-5535----4~-|
C|---------------------------------------------------|

Pre Chorus 0:42
F|-------------------------------------------------------------------|
C|-------------------------------------------------------------------|
G|-5(x16)---4(x16)---1(x16)---3(x16)---5(x16)---4(x16)---1~--0~-3-44-|
C|-------------------------------------------------------------------|

Chorus 0:55
F|---------------------------------------|
C|o-------------------------------------o|
G|o-5551-111----33333-11111111-33333333-o|
C|-----------333-------------------------|

Pre Verse 1:08
F|--------------------------|
C|---------------------3~---|
G|-5535--111-33~-5535----4~-|
C|--------------------------|

Verse 1:10
F|---------------------------------------------------|
C|---------------------3~~----------------------3~---|
G|-5535--11~-33~-5535-------5535--11~-33~-5535----4~-|
C|---------------------------------------------------|

Pre Chorus 1:27
F|-------------------------------------------------------------------|
C|-------------------------------------------------------------------|
G|-5(x16)---4(x16)---1(x16)---3(x16)---5(x16)---4(x16)---1~--0~-3-44-|
C|-------------------------------------------------------------------|

Chorus 1:40
F|---------------------------------------|
C|o-------------------------------------o|
G|o-5551-111----33333-11111111-33333333-o|
C|-----------333-------------------------|

Post Chorus 1:54
F|-----------------------|
C|-----------------------|
G|-----1-3~-----11111131-|
C|-0~~------0~~----------|

Breakdown(Pre Solo) 2:00
F|------------------------------------|
C|------------------------------------|
G|----------------------------111-333-|x2
C|-33333333-22222222-00000000---------|

Solo 2:13
F|-------------------------------------------------------|
C|---------------------3~------------------------3~---3\-|
G|-5535--11~-33~-5535----4~---5535--11~-33~-5535---4~----|
C|-------------------------------------------------------|

~break~

Chorus 2:37                x3
F|------|---------------------|--------------------|---------------------|
C|------|o-------------------o|--------------------|o-------------------o|
G|--33--|o----1-111----33333-o|-11111111-133333/7\-|o----11111----33333-o|
C|------|--000------333-------|--------------------|--000------333-------|

F|-------------------|--------------------------------------------|
C|-------------------|--------------------------------------------|
G|-5551-111----33333-|-11111111-13333333-11111111-13333573--5535\-|
C|----------333------|--------------------------------------------|

Pick Up The Phone

0:02
F|-----------------------------------------------------------------|
C|-2-----2-------------------------2-----2-------------------------|
G|---------------2---2---2-3---------------------2---2---2-3-3-2---|
C|---------2-------------------------------2---------------------5-|

F|-----------------------------------------------------------------|
C|-2-----2---------------------------------------------------------|
G|---------------2---2---2-3---------------------------------------|
C|---------2-----------------------14-\-\-\-\-\-\-\----------------|

0:17
F|-----------------------------------------------------------------|
C|-2-----2-------------------------2-----2-------------------------|
G|---------------2---2---2-3-3-3-3---------------2---2---2-3-3-2---|
C|---------2-------------------------------2---------------------5-|

F|-----------------------------------------------------------------|
C|-2-----2---------------------------------------------------------|
G|---------------2---2---2-3-3-3-3-7-\-\-\-------------------------|
C|---------2-------------------------------------------------------|

0:31
F|-----------------------------------------------------------------|
C|-2-----2-------------------------2-----2-------------------------|
G|---------------2---2---2-3---------------------2---2---2-3-3-2---|
C|---------2-------------------------------2---------------------5-|

F|-----------------------------------------------------------------|
C|-2-----2---------------------------------------------------------|
G|---------------2---2---2-3---------------------------------------|
C|---------2-----------------------14-\-\-\-\-\-\-\----------------|

0:45
F|-----------------------------------------------------------------|
C|-2-----2-------------------------2-----2-------------------------|
G|---------------2---2---2-3-3-3-3---------------2---2---2-3-3-2---|
C|---------2-------------------------------2---------------------5-|

F|-----------------------------------------------------------------|
C|-2-----2---------------------------------------------------------|
G|---------------2---2---2-3-3-3-3-7-\-\-\-------------------------|
C|---------2-------------------------------------------------------|

0:59
F|-------------------------------------------------------------------------|
C|-------------------------------------------------------------------------|
G|-------------------------------------------------------------------------|
C|-2-2-2-2-2-2-2-2-2-2-2-2-4-4-4-4-4-4-4-4-4-4-4-4-5-5-5-5-5-5-5-5-5-5-5-5-|

F|-------------------------------------------------------------------------|
C|-------------------------------------------------------------------------|
G|-0-0-0-0-0-0-0-0-0-0-0-0-------------------------------------------------|
C|-------------------------2-2-2-2-2-2-2-2-2-2-2-2-4-4-4-4-4-4-4-4-4-4-4-4-|

F|-------------------------------------------------|
C|-------------------------------------------------|
G|-------------------------0-----------------------|
C|-5-5-5-5-5-5-5-5-5-5-5-5-------------------7-\-\-|

1:12
F|-------------------------------------------------------------------------------------------------|
C|-------------------------------------------------------------------------------------------------|
G|-3---3-3---3-3---3-3---3-3---3-3---3-3---3-3---------------------------------------------------3-|
C|-----------------------------------------------2-----2-2---2-2---2-2---5-----5-5---5-5---5-5-----|

F|-------------------------------------------------------------------------------------------------|
C|-------------------------------------------------------------------------------------------------|
G|-----3-3---3-3---3-3---3-3---3-3---3-3---3-3---------------------------2-----2-2---2-2---2-2---3-|
C|-----------------------------------------------2-----2-2---2-2---2-2-----------------------------|

F|-------------------------------------------------------------------------------------------------|
C|-------------------------------------------------------------------------------------------------|
G|-----3-3---3-3---3-3---3-3---3-3---3-3---3-3---------------------------------------------------3-|
C|-----------------------------------------------2-----2-2---2-2---2-2---5-----5-5---5-5---5-5-----|

F|-------------------------------------------------------------------------------------------------|
C|-------------------------------------------------------------------------------------------------|
G|-----3-3---3-3---3-3---3-3---3-3---3-3---3-3---5-----5-5---5-5---5-5---6-6---6-6---6-6---6-6---6-|
C|-------------------------------------------------------------------------------------------------|

1:38
F|-----------------------------------------------------------------|
C|-2-----2-------------------------2-----2-------------------------|
G|---------------2---2---2-3-3-3-3---------------2---2---2-3-3-2---|
C|---------2-------------------------------2---------------------5-|

F|-----------------------------------------------------------------|
C|-2-----2---------------------------------------------------------|
G|---------------2---2---2-3-3-3-3-7-\-\-\-------------------------|
C|---------2-------------------------------------------------------|

1:51
F|-----------------------------------------------------------------|
C|-2-----2-------------------------2-----2-------------------------|
G|---------------2---2---2-3---------------------2---2---2-3-3-2---|
C|---------2-------------------------------2---------------------5-|

F|-----------------------------------------------------------------|
C|-2-----2-------------------------2-----2-------------------------|
G|---------------2---2---2-3---------------------2---2---2-3-3-2---|
C|---------2-------------------------------2---------------------5-|

F|-----------------------------------------------------------------|
C|-2-----2---------------------------------------------------------|
G|---------------2---2---2-3---------------------------------------|
C|---------2-----------------------14-\-\-\-\-\-\-\----------------|

2:12
F|-----------------------------------------------------------------|
C|-2-----2-------------------------2-----2-------------------------|
G|---------------2---2---2-3-3-3-3---------------2---2---2-3-3-2---|
C|---------2-------------------------------2---------------------5-|

F|-----------------------------------------------------------------|
C|-2-----2---------------------------------------------------------|
G|---------------2---2---2-3-3-3-3-7-\-\-\-------------------------|
C|---------2-------------------------------------------------------|

2:26
F|-------------------------------------------------------------------------|
C|-------------------------------------------------------------------------|
G|-------------------------------------------------------------------------|
C|-2-2-2-2-2-2-2-2-2-2-2-2-4-4-4-4-4-4-4-4-4-4-4-4-5-5-5-5-5-5-5-5-5-5-5-5-|

F|-------------------------------------------------------------------------|
C|-------------------------------------------------------------------------|
G|-0-0-0-0-0-0-0-0-0-0-0-0-------------------------------------------------|
C|-------------------------2-2-2-2-2-2-2-2-2-2-2-2-4-4-4-4-4-4-4-4-4-4-4-4-|

F|-------------------------------------------------|
C|-------------------------------------------------|
G|-------------------------0-----------------------|
C|-5-5-5-5-5-5-5-5-5-5-5-5-------------------7-\-\-|

2:40
F|-------------------------------------------------------------------------------------------------|
C|-------------------------------------------------------------------------------------------------|
G|-3---3-3---3-3---3-3---3-3---3-3---3-3---3-3---------------------------------------------------3-|
C|-----------------------------------------------2-----2-2---2-2---2-2---5-----5-5---5-5---5-5-----|

F|-------------------------------------------------------------------------------------------------|
C|-------------------------------------------------------------------------------------------------|
G|-----3-3---3-3---3-3---3-3---3-3---3-3---3-3---------------------------2-----2-2---2-2---2-2---3-|
C|-----------------------------------------------2-----2-2---2-2---2-2-----------------------------|

F|-------------------------------------------------------------------------------------------------|
C|-------------------------------------------------------------------------------------------------|
G|-----3-3---3-3---3-3---3-3---3-3---3-3---3-3---------------------------------------------------3-|
C|-----------------------------------------------2-----2-2---2-2---2-2---5-----5-5---5-5---5-5-----|

F|-------------------------------------------------------------------------------------------------|
C|-------------------------------------------------------------------------------------------------|
G|-----3-3---3-3---3-3---3-3---3-3---3-3---3-3---5-----5-5---5-5---5-5---6-6---6-6---6-6---6-6---6-|
C|-------------------------------------------------------------------------------------------------|

3:06
F|-------------------------------------------------------------------------------------------------|
C|-------------------------------------------------------------------------------------------------|
G|-0-----------------0-----------------------------3-----------------3-----------------------------|
C|-------------------------5-----------------5-----------------------------2-----------2-----2-----|

F|-------------------------------------------------------------------------------------------------|
C|-------------------------------------------------------------------------------------------------|
G|-0-----------------0-----------------------------3-----------------3-----------------------------|
C|-------------------------5-----------------5-----------------------------2-----------2-----------|
3:20
F|-------------------------------------------------------------------------------------------------|
C|-------------------------------------------------------------------------------------------------|
G|-0---0-0-0---0---0-0-0---------------------------3---3-3-3---3---3-3-3---------------------------|
C|-------------------------5---5-5-5---5---5-5-5---------------------------2-2-2-2-2-2-2-2-2-2-2-2-|

F|-------------------------------------------------------------------------------------------------|
C|-------------------------------------------------------------------------------------------------|
G|-0---0-0-0---0---0-0-0---------------------------3---3-3-3---3---3-3-3---------------2-----------|
C|-------------------------5---5-5-5---5---5-5-5---------------------------6-----------------------|

F|---------|
C|---------|
G|---------|
C|-2-\-\-\-|

3:37
F|-----------------------------------------------------------------|
C|-2-----2-------------------------2-----2-------------------------|
G|---------------2---2---2-3---------------------2---2---2-3-3-2---|
C|---------2-------------------------------2---------------------5-|

F|-----------------------------------------------------------------|
C|-2-----2---------------------------------------------------------|
G|---------------2---2---2-3---------------------------------------|
C|---------2-----------------------14-\-\-\-\-\-\-\----------------|

3:50
F|-------------------------------------------------------------------------------------------------|
C|-------------------------------------------------------------------------------------------------|
G|-3---3-3---3-3---3-3---3-3---3-3---3-3---3-3---------------------------------------------------3-|
C|-----------------------------------------------2-----2-2---2-2---2-2---5-----5-5---5-5---5-5-----|
F|-------------------------------------------------------------------------------------------------|
C|-------------------------------------------------------------------------------------------------|
G|-----3-3---3-3---3-3---3-3---3-3---3-3---3-3---------------------------2-----2-2---2-2---2-2---3-|
C|-----------------------------------------------2-----2-2---2-2---2-2-----------------------------|

F|-------------------------------------------------------------------------------------------------|
C|-------------------------------------------------------------------------------------------------|
G|-----3-3---3-3---3-3---3-3---3-3---3-3---3-3---------------------------------------------------3-|
C|-----------------------------------------------2-----2-2---2-2---2-2---5-----5-5---5-5---5-5-----|

F|-------------------------------------------------------------------------------------------------|
C|-------------------------------------------------------------------------------------------------|
G|-----3-3---3-3---3-3---3-3---3-3---3-3---3-3---5-----5-5---5-5---5-5---6-6---6-6---6-6---6-6---6-|
C|-------------------------------------------------------------------------------------------------|

4:16
F|-----------------------------------------------------------------|
C|-2-----2-------------------------2-----2-------------------------|
G|---------------2---2---2-3-3-3-3---------------2---2---2-3-3-2---|
C|---------2-------------------------------2---------------------5-|

F|-----------------------------------------------------------------|
C|-2-----2---------------------------------------------------------|
G|---------------2---2---2-3-3-3-3-7-\-\-\-------------------------|
C|---------2-------------------------------------------------------|

Don't Mess With Ouija Boards

F|-----------------------------------------------------------------|
C|-----------------------------------------------------------------|
G|-----------------0---------------3-----------------------4-------|
C|-0-----------------------------------------------0---------------|

0:10
F|-----------------------------------------------------------------|
C|-----------------------------------------------------------------|
G|---------------------------------0-0-0-0-0---0-0-0-0-0-0-0---0---|
C|-0-0-0-0-0---0-0-0-0-0-0-0---0-----------------------------------|

F|-----------------------------------------------------------------|
C|-----------------------------------------------------------------|
G|-3-3-3-3-3---3-3-3-3-3-3-3---3---5-5-5-5-5-5-5-5-4-4-4-4-4-4-4---|
C|---------------------------------------------------------------0-|

0:20
F|-----------------------------------------------------------------|
C|-----------------------------------------------------------------|
F|-----------------5---4---------------------------5---4-----------|
C|---0-2-0-3-0-0-0---0---0-3-4-5-0---0-2-0-3-0-0-0---0---0-7-5-4-5-|

0:24
F|-----------------------------------------------------------------|
C|-----------------------------------------------------------------|
G|-------------------------------------------------4-4---0-0-------|
C|---5-5-5-5-5-5-5-5-5-5-5-5-5-5-5---5-5-5-5-5-5-----------------0-|
0:29
F|-----------------------------------------------------------------|
C|-----------------------------------------------------------------|
G|-----------------------------------------------------------------|
C|---0-0-000-------000-0-0---0-0-000-------000-0-5---5-5-555-------|

F|-----------------------------------------------------------------|
C|-----------------------------------------------------------------|
G|---------------------------4---4-4-0---0-0-----------------------|
C|---------555-5-5---5-5-555---------------------------------------|

Rest

0:48
F|-----------------------------------------------------------------|
C|-----------------------------------------------------------------|
G|-3---3---3---3---3---3---3---3---1---1---1---1---1---1---1---1---|
C|-----------------------------------------------------------------|

F|-----------------------------------------------------------------|
C|-----------------------------------------------------------------|
G|-----------------------------------------------------------------|
C|-0---0---0---0---0---0---0---0---4---4---4---4---5---------------|

0:59
F|-----------------------------------------------------------------|
C|-----------------------------------------------------------------|
G|-3---3---3---3---3---3---3---3---1---1---1---1---1---1---1---1---|
C|-----------------------------------------------------------------|

F|-----------------------------------------------------------------|
C|-----------------------------------------------------------------|
G|-----------------------------------------------------------------|
C|-0---0---0---0---0---0---0---0---4---4---4---4---5---5---5---5---|

F|-----------------------------------------------------------------|
C|-----------------------------------------------------------------|
G|-3---3---3---3---3---3---3---5---1---1---1---1---1---1---1---3---|
C|-----------------------------------------------------------------|

F|-----------------------------------------------------------------|
C|-----------------------------------------------------------------|
G|-----------------------------------------------------------------|
C|-0---0---0---0---0---0---0---0---4---4---4---4---5---5---5---5---|

F|---------------------------------|
C|---------------------------------|
G|-----------------0---------------|
C|-0-----------------------------0-|

1:20
F|-----------------------------------------------------------------|
C|-----------------------------------------------------------------|
F|-----------------5---4---------------------------5---4-----------|
C|---0-2-0-3-0-0-0---0---0-3-4-5-0---0-2-0-3-0-0-0---0---0-7-5-4-5-|

F|-----------------------------------------------------------------|
C|-----------------------------------------------------------------|
G|-----------------------------------------------------------------|
C|---5-5-5-5-5-5-5-5-5-5-5-5-5-5-5---5-5-5-5-5-5-----------------0-|

F|-----------------------------------------------------------------|
C|-----------------------------------------------------------------|
G|-----------------------------------------------------------------|
C|---0-0-000-------000-0-0---0-0-000-------000-0-5---5-5-5-5-5-5-5-|

F|-----------------------------------------------------------------|
C|-----------------------------------------------------------------|
G|-----------------0-0-0-0-0-0-0-0-4-------------------------------|
C|-5-5-5-5-5-5-5-5-------------------------------------------------|

1:40
F|-----------------------------------------------------------------|
C|-----------------------------------------------------------------|
G|-3---3---3---3---3---3---3---3---1---1---1---1---1---1---1---1---|
C|-----------------------------------------------------------------|

F|-----------------------------------------------------------------|
C|-----------------------------------------------------------------|
G|-----------------------------------------------------------------|
C|-0---0---0---0---0---0---0---0---4---4---4---4---5---5---5---5---|

F|-----------------------------------------------------------------|
C|-----------------------------------------------------------------|
G|-3---3---3---3---3---3---3---5---1---1---1---1---1---1---1---3---|
C|-----------------------------------------------------------------|

F|-----------------------------------------------------------------|
C|-----------------------------------------------------------------|
G|-----------------------------------------------------------------|
C|-0---0---0---0---0---0---0---0---4---4---4---4---5---5---5---5---|

F|-------------------------------------------------------------------------|
C|-------------------------------------------------------------------------|
G|-----------------0---------------3-----------------------4-------5-------|
C|-0-----------------------------------------------0-----------------------|

2:12
F|---------------------------------------------------------|
C|---------------------------------------------------------|
G|-----------------------5-8-7-----7-10-8------------------|
C|-8-7-5-3-8-7-5-3-0---------------------------------------|

F|-----------------------------------------------------------------|
C|-------------------------------------------------8-7-5-3-8-7-5-3-|
G|-----------------------------------------------------------------|
C|-0-0-0-0-0-0-0-3-2-0-0-0-0-0-2-5-3-0-0-0-0-0-0-0-----------------|

F|-----------------------------------------------------------------|
C|-----------------------------------------------------------------|
G|-----------------------------------------------------------------|
C|-0-0-0-0-0-0-0-3-2-0-0-0-0-0-2-5-3-0-0-0-0-0-0-0-8-7-5-3-8-7-5-3-|

2:24
F|-----------------------------------------------------------------|
C|-------------------------------------------------8-7-5-3-3-5-7-8-|
G|-----------------------------------------------------------------|
C|-0-0-0-0-0-0-0-3-2-0-0-0-0-0-2-5-3-0-0-0-0-0-0-0-----------------|

F|-----------------------------------------------------------------|
C|-----------------------------------------------------------------|
G|-----------------------------------------------------------------|
C|-0-0-0-0-0-0-0-3-2-0-0-0-0-0-2-5-3-0-0-0-0-0-0-0-8-7-5-3-8-7-5-3-|

2:31
F|-----------------------------------------------------------------|
C|-------------------------------------------------8-7-8-7-0-3-5-7-|
G|---------------------------------0-0-0-0---000-------------------|
C|-5-5-5-5---555---5-5-5-5---5-5-5---------------------------------|

F|-----------------------------------------------------------------|
C|-------------------------------------------------8-7-5-3-8-7-5-3-|
G|-----------------------------------------------------------------|
C|-0-0-0-0-0-0-0-3-2-0-0-0-0-0-2-5-3-0-0-0-0-0-0-0-----------------|

2:38
F|-----------------------------------------------------------------|
C|-----------------------------------------------------------------|
G|---------------------------------0-0-0-0---000-------------------|
C|-5-5-5-5---555---5-5-5-5---5-5-5-----------------8-7-8-7-0-3-5-7-|

F|-----------------------------------------------------------------|
C|-----------------------------------------------------------------|
G|-----------------------------------------------------------------|
C|-0-0-0-0-0-0-0-3-2-0-0-0-0-0-2-5-3-0-0-0-0-0-0-0-8-7-5-3-8-7-5-3-|

F|-----------------------------------------------------------------|
C|-------------------------------------------------8-7-5-3-8-7-5-3-|
G|-----------------------------------------------------------------|
C|-0-0-0-0-0-0-0-3-2-0-0-0-0-0-2-5-3-0-0-0-0-0-0-0-----------------|

2:49
F|--------------------------------------------------------------------------------------------------|
C|--------------------------------------------------------------------------------------------------|
G|-1--1--1--1--1--1--1--1--31---1--1--1--1--1--135--------------------------------------------------|
C|------------------------------------------------0---0--0--0--0--0--0--0--03---3--3--3--3--3--3--3-|

F|--------------------------------------------------------------------------------------------------|
C|--------------------------------------------------------------------------------------------------|
G|--1---1--1--1--1--1--1--1--31---1--1--1--1--1--135------------------------------------------------|
C|-3------------------------------------------------0---0--0--0--0--0--0--0--03---3--3--3-------3-\-|

3:04
F|-----------------------------------------------------------------|
C|-----------------------------------------------------------------|
G|-----------------------------------------------------------------|
C|-0---0-0-0-0-------------0-0-0h3-----0-0-0-0-----0000---000000---|

F|-----------------------------------------------------------------|
C|-----------------------------------------------------------------|
G|-----------------------------------------------------------------|
C|-0---0-0-0-0-------------0-0-0h3-----0-0-0-0---------------------|

F|-----------------------------------------------------------------|
C|-----------------------------------------------------------------|
G|-----------------------------------------------------------------|
C|-0---0-0-0-0-------------0-0-0h3-----0-0-0-0-----0000---000000---|

F|-----------------------------------------------------------------|
C|-----------------------------------------------------------------|
G|-----------------------------------------------------------------|
C|-0---0-0-0-0-------------0-0-0h3-----0-0-0-0-----0000---000000---|

3:23
F|-----------------------------------------------------------------|
C|-----------------------------------------------------------------|
G|-----------------0------------------------------0----------------|
C|-0-------------------------------0-------------------------------|

3:34
F|-----------------------------------------------------------------|
C|-----------------------------------------------------------------|
G|-3-3-3-3-3-3-3-3-3-3-3-3-3-3-3-3-1-1-1-1-1-1-1-1-1-1-1-1-1-1-1-1-|
C|-----------------------------------------------------------------|

F|-----------------------------------------------------------------|
C|-----------------------------------------------------------------|
G|-----------------------------------------------------------------|
C|-0-0-0-0-0-0-0-0-0-0-0-0-0-0-0-0-4-4-4-4-4-4-4-4-5---------------|

4:43
F|-----------------------------------------------------------------|
C|-----------------------------------------------------------------|
G|-3---3---3---3---3---3---3---3---1---1---1---1---1---1---1---1---|
C|-----------------------------------------------------------------|

F|-----------------------------------------------------------------|
C|-----------------------------------------------------------------|
G|-----------------------------------------------------------------|
C|-0---0---0---0---0---0---0---0---4---4---4---4---5---5---5---5---|

F|-----------------------------------------------------------------|
C|-----------------------------------------------------------------|
G|-3---3---3---3---3---3---3---5---1---1---1---1---1---1---1---3---|
C|-----------------------------------------------------------------|

F|-----------------------------------------------------------------|
C|-----------------------------------------------------------------|
G|-----------------------------------------------------------------|
C|-0---0---0---0---0---0---0---0---4---4---4---4---5---5---5---5---|

F|-----------------------------------------------------------------|
C|-----------------------------------------------------------------|
G|-3---3---3---3---3---3---3---3---1---1---1---1---1---1---1---1---|
C|-----------------------------------------------------------------|

F|-----------------------------------------------------------------|
C|-----------------------------------------------------------------|
G|-----------------------------------------------------------------|
C|-0---0---0---0---0---0---0---0---4---4---4---4---5---5---5---5---|

F|-----------------------------------------------------------------|
C|-----------------------------------------------------------------|
G|-3---3---3---3---3---3---3---5---1---1---1---1---1---1---1---3---|
C|-----------------------------------------------------------------|

F|-----------------------------------------------------------------|
C|-----------------------------------------------------------------|
G|-----------------------------------------------------------------|
C|-0---0---0---0---0---0---0---0---4---4---4---4---5---\---\---\---|

4:25
F|-----------------------------------------------------------------|
C|-----------------------------------------------------------------|
G|-----------------------------------------------------------------|
C|-0---0-0-0-0-------------0-0-0h3-----0-0-0-0-----0000---000000---|

F|-----------------------------------------------------------------|
C|-----------------------------------------------------------------|
G|-----------------------------------------------------------------|
C|-0---0-0-0-0-------------0-0-0h3-----0-0-0-0---------------------|

F|-----------------------------------------------------------------|
C|-----------------------------------------------------------------|
G|-----------------------------------------------------------------|
C|-0---0-0-0-0-------------0-0-0h3-----0-0-0-0-----0000---000000---|

F|-----------------------------------------------------------------|
C|-----------------------------------------------------------------|
G|-----------------------------------------------------------------|
C|-0---0-0-0-0-------------0-0-0h3-----0-0-0-0-----0000---000000---|

Sink or Swim

F|-------------------------------------------------------------------------|
C|-------------------------------------------------------------------------|
G|-------------------1--1(x8)-1--1(x8)-------------------------------------|
C|-0--0(x8)-0--0(x8)-------------------5--5(x8)-5--5(x8)-0--0(x8)-0--0(x8)-|

F|-------------------------------------------------------------------------|
C|-------------------------------------------------------------------------|
G|-------------------1--1(x8)-1--1(x8)-------------------------------------|
C|-0--0(x8)-0--0(x8)-------------------5--5(x8)-5--5(x8)-0--0(x8)-0--------|

0:26
F|---------------------------------------------|
C|---------------------------------------------|
G|------------------------------------0h4-0h7--|
C|-0(x10)--0-000-00000--0(x10)--0-000----------|

F|---------------------------------------------|
C|---------------------------------------------|
G|------------------------------------0h4------|
C|-5(x10)--5-555-55555--5(x10)--5-555-----0h2--|

0:39
F|----------------------------------------------|
C|----------------------------------------------|
G|-------------------------------------0h4-0h7--|
C|-0000000000~~000~000~0000000000~~000~---------|

F|---------------------------------------------|
C|---------------------------------------------|
G|---------------------------------------------|
C|-5555555555~~555~555~5555555555~~54320-------|

0:52
F|----------------------------------------------------------------|
C|----------------------------------------------------------------|
G|-------------------------------53--11111-11-11-111--3(x8)-------|
C|-00000-00-00-000--33333-33-33-3---------------------------2(x8)-|

F|-------------------------------------------------------------------|
C|-------------------------------------------------------------------|
G|-------------------------------53--11111-11-11-111--44444464-0(x8)-|
C|-00000-00-00-000--33333-33-33-3------------------------------------|

1:18
F|-------------|
C|-------------|
G|-------------|
C|-0-----0(x7)-|

1:24
F|-------------------------------------------------------------------------|
C|-------------------------------------------------------------------------|
G|-------------------1--1(x8)-1--1(x8)-------------------------------------|
C|-0--0(x8)-0--0(x8)-------------------5--5(x8)-5--5(x8)-0--0(x8)-0--0(x8)-|

F|-------------------------------------------------------------------------|
C|-------------------------------------------------------------------------|
G|-------------------1--1(x8)-1--1(x8)-------------------------------------|
C|-0--0(x8)-0--0(x8)-------------------5--5(x8)-5--5(x8)-0--0000000~~------|

1:50
F|----------------------------------------------|
C|----------------------------------------------|
G|-------------------------------------0h4-0h7--|
C|-0000000000~~000~000~0000000000~~000~---------|

F|-------------------------------------|
C|-------------------------------------|
G|-------------------------------------|
C|-5555555555~~555~555~5555555555~~55--|

2:03
F|----------------------------------------------------------------|
C|----------------------------------------------------------------|
G|-------------------------------53--11111-11-11-111--3(x8)-------|
C|-00000-00-00-000--33333-33-33-3---------------------------2(x8)-|

F|-----------------------------------------------------------------------|
C|-----------------------------------------------------------------------|
G|-------------------------------53--11111-11-11-111--44444464-0(x8)-----|
C|-00000-00-00-000--33333-33-33-3------------------------------------0---|

~~break~~

2:35 Softly
F|-----------------------------------|
C|o---------------------------------o|
G|o-5-------8-------1-------3-------o|
C|------------------------------2----|

3:00
F|--------------------------------------------|
C|o------------------------------------------o|
G|o------------------------------------------o|
C|--0(x10)--0-000-00000--0(x10)--0-000-00000--|

3:13
F|------------------------------------------|
C|------------------------------------------|
G|------------------------------------------|
C|-0(x10)--0-000-00000--3(x10)--3-333-33333-|

F|------------------------------------------|
C|------------------------------------------|
G|-1(x10)--1-111-11111--3(x10)--3-----------|
C|------------------------------------------|

3:26
F|----------------------------------------------------------------|
C|----------------------------------------------------------------|
G|-------------------------------53--11111-11-11-111--3(x8)-------|
C|-00000-00-00-000--33333-33-33-3---------------------------2(x8)-|

F|-------------------------------------------------------------------|
C|-------------------------------------------------------------------|
G|-------------------------------53--11111-11-11-111--44444464-0(x8)-|
C|-00000-00-00-000--33333-33-33-3------------------------------------|

F|----------------------------------------------------------------|
C|----------------------------------------------------------------|
G|-------------------------------53--11111-11-11-111--3(x8)-------|
C|-00000-00-00-000--33333-33-33-3---------------------------2(x8)-|

F|-----------------------------------------------------------------------|
C|-----------------------------------------------------------------------|
G|-------------------------------53--11111-11-11-111--44444464-0(x8)-----|
C|-00000-00-00-000--33333-33-33-3------------------------------------0---|

Caught Like A Fly

Intro
F|-------------------------------------|
C|------------3---5------------------5-|
G|--013---2-----3---5-3---2--------35--|
C|-5----5---5-----------5---5-3-3-5----|

Verse 0:17
F|----------------------------------------------------|
C|---------3---5------------------5----------3-3----5-|
G|-3---2-----3---5-3---2--------35---3---2--------35--|
C|---5---5-----------5---5-3-3-5-------5---5-----5----|

0:41
F|-----------------------------------------------|
C|---------------------------------------------5-|
G|-3---2-------------33~-3~-33-3-3-22--------35--|
C|---5---5--3~~-5555-------------------33~--5----|

Pre Chorus 0:56
F|----------------------------------|
C|---------3---5------------------5-|
G|-3---2-----3---5-3---2--------35--|
C|---5---5-----------5---5-3-3-5----|

Chorus 1:11
F|------------------------------------------------------------------------------------------------|
C|------------------------------------------------------------------------------------------------|
G|-------------------------1--1-11-1-1-11-1-11-1-1-3--3-33-3-3-33-3-33-3-3------------------------|
C|-1--1-11-1-1-11-1-11-1-1------------------------------------------------5--5-55-5-5-66-6-66-6-5-|

F|--------------------------------------------------------------------------------------------|
C|--------------------------------------------------------------------------------------------|
G|-------------------------1--1-11-1-1-22-2-22-22223--3-33-3-3-33-3-33-3-3--------------------|
C|-1--1-11-1-1-11-1-11-1-1------------------------------------------------6--6-66-6-6-66-6-66-|

Verse 1:43
F|-------------------------------------------|
C|------------------3---5------------------5-|
G|-3---3--013---2-----3---5-3---2--------35--|
C|---5---5----5---5-----------5---5-3-3-5----|

Pre Chorus 2:02
F|----------------------------------|
C|---------3---5------------------5-|
G|-3---2-----3---5-3---2--------35--|
C|---5---5-----------5---5-3-3-5----|

Chorus 2:18
F|-------------------------------------------------------------------------------------------------|
C|-------------------------------------------------------------------------------------------------|
G|-------------------------1--1-11-1-1-11-1-11-1-1-3--3-33-3-3-33-3-33-3-3-------------------------|
C|-1--1-11-1-1-11-1-11-1-1-------------------------------------------------5--5-55-5-5-66-6-66-6-5-|

F|---------------------------------------------------------------------------------------------|
C|---------------------------------------------------------------------------------------------|
G|-------------------------1--1-11-1-1-22-2-22-22223--3-33-3-3-33-3-33-3-3---------------------|
C|-1--1-11-1-1-11-1-11-1-1-------------------------------------------------6--6-66-6-6-66-6--6-|

Solo 2:49
F|---------------------------------------------------|
C|o-------------------------------------------------o|
G|o-------------11-1-11-1-1-3--3-33-3-3-33-3-33-1-1-o|x3
C|--6--6-66-6-6--------------------------------------|

F|----------------------------------------------|
C|----------------------------------------------|
G|-------------11-1-11-1-1----------------------|
C|-6--6-66-6-6-------------5--5-55-5-5-66-6-68\-|

~~break~~

3:49
F|-------------|
C|-------------|
G|-------------|
C|-6-6-6-6-6-6-|

Chorus 3:51
F|-------------------------------------------------------------------------------------------------|
C|-------------------------------------------------------------------------------------------------|
G|-------------------------1--1-11-1-1-11-1-11-1-1-3--3-33-3-3-33-3-33-3-3-------------------------|
C|-1--1-11-1-1-11-1-11-1-1-------------------------------------------------5--5-55-5-5-66-6-66-6-5-|

F|--------------------------------------------------------------------------------------------------|
C|--------------------------------------------------------------------------------------------------|
G|--------------------------------------------------------------------------------------------------|
C|-6--6-66-6-6-66-6-66-6-6-1--1-11-1-1-11-1-11-1-1-5--5-55-5-5-55-5-55-5-5-6--6-66-6-6/18(x12)--18\-|

Outro4:22
F|---------------------------|
C|---------------------------|
G|---------------------------|
C|-10-5-10-57810-5-10-57810\-|

Goodbye Graceful

F|--------------------------------------------------------------------------|
C|--------------------------------------------------------------------------|
G|--------------------------------------------------------------------------|
C|-5\-0(x10)-000-0000-0(x18)-000-0000-0(x18)-000-0000-0(x18)-000-0000-0(x8)-|

0:12
F|-----------------------------------------------------------------|
C|-----------------------------------------------------------------|
G|-----------------------------------------------------------------|
C|-0---0---0---0-------0-0-0-0-0---0---0---0---0-------0-0-0-0-0---|

F|-----------------------------------------------------------------|
C|-----------------------------------------------------------------|
G|-----------------------------------------------------------------|
C|-0---0---0---0---0---0-0-0-0-0---0---0---0---0---0---0-0-0-0-0---|

F|-----------------------------------------------------------------|
C|-----------------------------------------------------------------|
G|-----------------------------------------------------------------|
C|-0---0---0---0---0-0-0-0-0-0-0---0---0---0---0---0-0-0-0-0-0-0---|

F|-----------------------------------------------------------------|
C|-----------------------------------------------------------------|
G|---------------------------------------------------------------0-|
C|-0---0---0---0---0-0-0-0-0-0-0---0---0---0---0---0---------------|

0:25
F|-----------------------------------------------------------------|
C|-----------------------------------------------------------------|
G|---1-1-1-1-1-1-1-1-1-1-1-1-0-----------------------------------0-|
C|-------------------------------0---0-0-0-0-0-0-0-3-3-3-3-3-3-3---|

F|-----------------------------------------------------------------|
C|-----------------------------------------------------------------|
G|---1-1-1-1-1-1-1-1-3---3---------------------------------------0-|
C|---------------------------5---5---3-3-3-3-3-3-3-1-1----0----0---|

0:38
F|-----------------------------------------------------------------|
C|-----------------------------------------------------------------|
G|---1-1-1-1-1-1-1-1-1-1-1-1-0-----------------------------------0-|
C|-------------------------------0---0-0-0-0-0-0-0-3-3-3-3-3-3-3---|

F|-------------------------------------------------------------------------------|
C|-------------------------------------------------------------------------------|
G|---1-1-1-1-1-1-1-1-3---3-------------------------------------------------------|
C|---------------------------5---5---3-3-3-3-3-3-3-1-1---1-0---0-1-1-111-1-0-----|
                                           
0:53
F|-------------------------------------------------------------------|
C|-------------------------------------------------------------------|
G|-------------------------------------------------------------------|
C|-0(x9)-000--0(x17)-000--001-1-11-0(x9)-000-----0(x9)-000--001-1-11-|

1:05
F|------------------------------------------------------------------------------------------|
C|------------------------------------------------------------------------------------------|
G|------------------------------------------------------------------------------------------|
C|-0(x9)-000--0(x17)-000--001-1-11-0(x9)-000-----0(x9)-000--003-5-7-5-3h5-003-5-7-5-3h5-753-|

1:24
F|-----------------------------------------------------------------|
C|-----------------------------------------------------------------|
G|---------------------------------------------------------------0-|
C|-------------------------------0---0-0-0-0-0-0-0-3-3-3-3-3-3-3---|

F|-----------------------------------------------------------------|
C|-----------------------------------------------------------------|
G|---1-1-1-1-1-1-1-1-3---3---------------------------------------0-|
C|---------------------------5---5---3-3-3-3-3-3-3-1-1----0----0---|

F|-----------------------------------------------------------------|
C|-----------------------------------------------------------------|
G|---1-1-1-1-1-1-1-1-1-1-1-1-0-----------------------------------0-|
C|-------------------------------0---0-0-0-0-0-0-0-3-3-3-3-3-3-3---|

1:40
F|---------------------------------------------------------------------------------|
C|---------------------------------------------------------------------------------|
G|---1-1-1-1-1-1-1-1-3---3--------------------------------------------6-6---8------|
C|---------------------------5---5---3-3-3-3-3-3-3-1-1----0----0-1--------------3\-|

1:48
F|---------------------------------------------------------------|
C|---------------------------------------------------------------|
G|---------3333-5------------------3-33-5---------3-33-5---------|
C|-5(x16)---------1-1(x7)--5(x16)---------1-1(x7)--------1~--0~--|

 2:10    2:14
F|-----------------------|
C|-----------------------|
G|-----------------------|
C|-0------0-----6-8-12-8-|

2:17
F|-----------------------------------------------------------|
C|-----------------------------------------------------------|
G|-----------------------------------------------------------|
C|-0-0101-0-0101-0-0101-566-566-0-0101-0-0101-0-0101-500-600-|

F|-------------------------------------------------------------|
C|-------------------------------------------------------------|
G|-------------------------------------------------------------|
C|-0-0101-0-0101-0-0101-066-066-0-0101-0-0101-6---8---12---8---|

2:29
F|------------------------------------|
C|------------------------------------|
G|------------------------------------|
C|-8-7-6-5-6-5-4-3-5-4-3-2-4-3-2--1---|

2:38
F|-------------------------------------------------|
C|-------------------------------------------------|
G|--------1(x6)-000--------------------------------|
C|-5(x12)----------333-11111-1111-111-11111-111----|

F|----------------------------------------------------|
C|----------------------------------------------------|
G|-----------------11111-11000------------------------|
C|-55555-55555-555-------------333-11111-11111-11-000-|

2:51
F|-------------------------------------------------------|
C|-------------------------------------------------------|
G|-----------------------------------------------------0-|
C|-0(x18)-----0(x18)-001-1-11-0(x18)-0-0--0(x18)-0-75----|

3:04
F|-----------------------------------------------------------------|
C|-----------------------------------------------------------------|
G|---1-1-1-1-1-1-1-1-1-1-1-1-0-----------------------------------0-|
C|-------------------------------0---0-0-0-0-0-0-0-3-3-3-3-3-3-3---|

F|-----------------------------------------------------------------|
C|-----------------------------------------------------------------|
G|---1-1-1-1-1-1-1-1-3---3---------------------------------------0-|
C|---------------------------5---5---3-3-3-3-3-3-3-1-1----0----0---|

F|-----------------------------------------------------------------|
C|-----------------------------------------------------------------|
G|---1-1-1-1-1-1-1-1-1-1-1-1-0-----------------------------------0-|
C|-------------------------------0---0-0-0-0-0-0-0-3-3-3-3-3-3-3---|

F|-------------------------------------------------------------------------------|
C|-------------------------------------------------------------------------------|
G|---1-1-1-1-1-1-1-1-3---3-------------------------------------------------------|
C|---------------------------5---5---3-3-3-3-3-3-3-1-1---1-0---0-1-1-111-1-0-----|

3:31 x4
F|---------------------------------------------------------------------------------------------------|
C|o--------------------------------------------------------------------------------------------------|
G|o--------------------------------------------------------------------------------------------------|
C|--0---0---0---0---0---0-0-0-------0-0-0-0-0-0-0---0---0---0---0---0---0-0-0------0-0-1---1---1-1---|

F|---------------------------------------------------------------------------------------------------|
C|--------------------------------------------------------------------------------------------------o|
G|--------------------------------------------------------------------------------------------------o|
C|-0---0---0---0---0---0-0-0-------------0-0-0-0---0---0---0---0---0---0-0-0-------------------------|

4:22
F|---------------------------------------------------------------------------------------------------|
C|o--------------------------------------------------------------------------------------------------|
G|o--------------------------------------------------------------------------------------------------|
C|--0---0---0---0---0---0-0-0-------0-0-0-0-0-0-0---0---0---0---0---0---0-0-0------0-0-1---1---1-1---|

F|---------------------------------------------------------------------------------------------------|
C|--------------------------------------------------------------------------------------------------o|
G|--------------------------------------------------------------------------------------------------o|
C|-0---0---0---0---0---0-0-0-------------0-0-0-0---0---0---0---0---0---0-0-0------0-0-1---1---1-1----|

The Westerner

F|-10--10--10--10--10--10--10--10--9--9--9--9----------------9-|
C|---12--12--12--12--12--12--12--12-10-10-10-7-7~~--------7----|
G|-------------------------------------------------------------|
C|-------------------------------------------------------------|

F|-10--10--10--10--10--10--10--10--9--9--9--9---------|
C|---12--12--12--12--12--12--12--12-10-10-10-10-------|
G|-----------------------------------------------0000-|
C|----------------------------------------------------|

0:13
F|---------------------------------------------------------------|
C|---------------------------------------------------------------|
G|-5-5-5-5-5-5-5-5-3-3-3-3-0-0-0-0-5-5-5-5-5-5-5-5-3-3-3-3--0000-|
C|---------------------------------------------------------------|

0:24
F|-10--10--10--10--10--10--10--10---|
C|---12--12--12--12--12--12--12--12-|
G|----------------------------------|
C|----------------------------------|

F|-10--10--10--10--10--10--10--10--9--9--9--9----------------9-|
C|---12--12--12--12--12--12--12--12-10-10-10-7-7-7-7-7-7-7-7---|
G|-------------------------------------------------------------|
C|-------------------------------------------------------------|

F|-10--10--10--10--10--10--10--10--9--9--9--9--------|
C|---12--12--12--12--12--12--12--12-10-10-10-10------|
G|---------------------------------------------------|
C|---------------------------------------------------|

0:40
F|-------------------------------------------------------------------|
C|-------------------------------------------------------------------|
G|-5-5-55555-5-55555-5-55555-5-55553-3-33333-3-33330-0-00000-0-00005-|
C|-------------------------------------------------------------------|

F|-------------------------------------------------------------------|
C|-------------------------------------------------------------------|
G|-5-55555-5-55555-5-55555-5-55553-3-33333-3-33330-0-00000-0-00005---|
C|-------------------------------------------------------------------|

0:56
F|-------------------------------------------------------------------------------------------------|
C|-------------------------------------------------------------------------------------------------|
G|-5---5-5-5---5---5-5-5---5---5-5-5---5---5-5-5---8---8-8-8---8---8-8-8---8---8-8-8---8---8-8-8---|
C|-------------------------------------------------------------------------------------------------|

F|-------------------------------------------------------------------------------------------------|
C|-------------------------------------------------------------------------------------------------|
G|-------------------------------------------------0---0-0-0---0---0-0-0---0-0-0-0-0-0-0-0-0-0-0-0-|
C|-5---5-5-5---5---5-5-5---5---5-5-5---5---5-5-5---------------------------------------------------|

F|-------------------------------------------------------------------------------------------------|
C|-------------------------------------------------------------------------------------------------|
G|-5-5-5-5-5-5-5-5-5-5-5-5-5-5-5-5-5-5-5-5-5-5-5-5-8-8-8-8-8-8-8-8-8-8-8-8-8-8-8-8-8-8-8-8-8-8-8-8-|
C|-------------------------------------------------------------------------------------------------|

F|-------------------------------------------------------------------------------------------------|
C|-------------------------------------------------------------------------------------------------|
G|-------------------------------------------------0-0-0-0-0-0-0-0-0-0-0-0-0-----0-----0-----0-----|
C|-5-5-5-5-5-5-5-5-5-5-5-5-5-5-5-5-5-5-5-5-5-5-5-5-------------------------------------------------|

1:23
F|---7---7---7---7---7---7---7---7---7---7---7---7------------------------|
C|------------------------------------------------/12-12--12-10-9-7-5-3-1-|
G|-5---5---5---5---5---5---5---5---5---5---5---5--------------------------|
C|------------------------------------------------------------------------|

1:28
F|------------------------------------------------|
C|-0(x32)-----------------------------------------|
G|----------3(x16)---0(x16)---5(x32)---3(x16)---0-|
C|------------------------------------------------|

1:42
F|-----------------------------------------------------------------|
C|-------------------------------------------------------------5-3-|
G|-5-5-5-5-5-5-5-5-3-3-3-3-0-0-0-0-5-5-5-5-5-5-5-5-3-3-3-3-3-0-----|
C|-----------------------------------------------------------------|

1:53
F|-------------------------------------------------------------------------------------------------|
C|-------------------------------------------------------------------------------------------------|
G|-5---5-5-5---5---5-5-5---5---5-5-5---5---5-5-5---8---8-8-8---8---8-8-8---8---8-8-8---8---8-8-8---|
C|-------------------------------------------------------------------------------------------------|

F|-------------------------------------------------------------------------------------------------|
C|-------------------------------------------------------------------------------------------------|
G|-------------------------------------------------0---0-0-0---0---0-0-0---0-0-0-0-0-0-0-0-0-0-0-0-|
C|-5---5-5-5---5---5-5-5---5---5-5-5---5---5-5-5---------------------------------------------------|

F|-------------------------------------------------------------------------------------------------|
C|-------------------------------------------------------------------------------------------------|
G|-5-5-5-5-5-5-5-5-5-5-5-5-5-5-5-5-5-5-5-5-5-5-5-5-8-8-8-8-8-8-8-8-8-8-8-8-8-8-8-8-8-8-8-8-8-8-8-8-|
C|-------------------------------------------------------------------------------------------------|

F|-------------------------------------------------------------------------------------------------|
C|-------------------------------------------------------------------------------------------------|
G|-------------------------------------------------0-0-0-0-0-0-0-0-0-0-0-0-0-----0-----0-----0-----|
C|-5-5-5-5-5-5-5-5-5-5-5-5-5-5-5-5-5-5-5-5-5-5-5-5-------------------------------------------------|

2:20
F|--------------------------------------------------------------------------------------------------|
C|o-------------3---3-3-3---------------5---5-5-5---------------------------------------------------|
G|o-1---1-1-1---------------------------------------------------------------1-1-1-1-1-1-0-0-0-0-0-0-|
C|--------------------------5---5-5-5---------------3---3-3-3---3---3-3-3---------------------------|

F|--------------------------------------------------------------------------------------------------|
C|-------------3---3-3-3---------------5---5-5-5---------------------------------------------------o|
G|-1---1-1-1---------------------------------------------------------------1---1---1---0---0---0---o|
C|-------------------------5---5-5-5---------------3---3-3-3---3---3-3-3----------------------------|

2:46
F|-------------------------------------------------------------------------------------------------|
C|-------------------------------------------------------------------------------------------------|
G|-------------------------------------------------------------------------------------------------|
C|-0---0-0-0---5---0-0-0---3---0-0-0---1---0---1---0---0-0-0---5---0-0-0---3---0-0-0---1---0---1---|

F|-------------------------------------------------------------------------------------------------|
C|-------------------------------------------------------------------------------------------------|
G|-------------------------------------------------------------------------------------------------|
C|-0---0-0-0-0-5---0-0-0-0-7---0-0-0-0-1---1---1---0-0-0-0-0-0-5---0-0-0-0-3---0-0-0-0-1---1---1---|

F|-----------------------------------------------------|
C|-----------------------------------------------------|
G|-------------------------------------------------5~\-|
C|-0-0-0-0-----1---1---1---0-0-0-0-----1---1---1-------|

3:06
F|-------------------------------------------------|
C|-------------------------------------------------|
G|-8---8-8-8---8---8-8-8---8---8-8-8---8---8-8-8---|
C|-------------------------------------------------|

F|-------------------------------------------------------------------------------------------------|
C|-------------------------------------------------------------------------------------------------|
G|-------------------------------------------------0---0-0-0---0---0-0-0---0-0-0-0-0-0-0-0-0-0-0-0-|
C|-5---5-5-5---5---5-5-5---5---5-5-5---5---5-5-5---------------------------------------------------|

F|-------------------------------------------------------------------------------------------------|
C|-------------------------------------------------------------------------------------------------|
G|-5-5-5-5-5-5-5-5-5-5-5-5-5-5-5-5-5-5-5-5-5-5-5-5-8-8-8-8-8-8-8-8-8-8-8-8-8-8-8-8-8-8-8-8-8-8-8-8-|
C|-------------------------------------------------------------------------------------------------|

F|---------------------------------------------------------------------------------------------------|
C|---------------------------------------------------------------------------------------------------|
G|-------------------------------------------------0-0-0-0-0-0-0-0-0-0-0-0-3-----0-------------------|
C|-5-5-5-5-5-5-5-5-5-5-5-5-5-5-5-5-5-5-5-5-5-5-5-5-------------------------------------5-----3-----0-|

Tabbed by Dave Vucko

            
            
Suggest correction
Creating personal tab
Creating personal tab
You can edit any tab online and save it as your Personal.

You can edit, replace or remove any tab part or add personal notes – all changes will be seen only by you.

Personal tabs can be accessed anytime from any device, even offline.
Learn more »
Give kudos to tab author, rate the tab!
1 2 3 4 5
comments
print report bad tab
guest
You may want to rate the tab now too:
select rating
Wanna post a correction for this tab? Suggest correction