Oops, an error
Loading. Please wait.

Rant Rushmore Acoustic tab

142 views 6 this week
no commentswrite comment
1 2 3 4 5
2 more votes to show rating
add to favorites
×
Save as Personal and add changes to this tab that will be seen only by you. Learn more ›
×
You can save this tab as Personal to edit and correct it or add notes. All changes will be seen only by you. Learn more »
launch autoscroll
font size
0
reset
how to read this tab
guitar tuner
edit
Autoscroll
slow
fast
+/-
esc
set tempo
stop
Author
Difficulty
Standard tuning.

Tab based on this performance:
https://www.youtube.com/watch?v=4fDJ8_8Pet8&t=48s

[Intro Riff]
  1   2   3   4   1   2   3   4   1   2   3   4   1   2   3   4
e|-------------------------------|-------------------------------|
B|-------------------------------|-------------------------------|
G|-------------------------------|----------------4---4-4-x------|
D|7---------------7---7---7---7--|7---7---7---7---5---5-5-x------|
A|7---------------7---7---7---7--|7---7---7---7---5---5-5-x------|
E|5---------------5---5---5---5--|5---5---5---5---3---3-3-x------|

  1   2   3   4   1   2   3   4   1   2   3   4   1   2   3   4
                                          ^
e|-------------------------------|-------------------------------|
B|-------------------------------|6-------6---6-6-x-6-6---6-6----|
G|-------------------------------|7-------7---7-7-x-7-7---7-7----|
D|7-------7-------7---7-7-7------|7-------7---7-7-x-7-7---7-7----|
A|7-------7-------7---7-7-7------|5-------5---5-5-x-5-5---5-5----|
E|5---5---5---5---5---5-5-5------|--------x----------------------|
  A-           -a              A -men

[Pre-Chorus]
  1   2   3   4   1   2   3   4
e|-------------------------------|
B|-------------------------------|
G|-------------------------------|
D|-------------------------------|
A|6-m----------------------------|
E|5-m----------------------------|

     I can feel a change comin'.

[Chorus]
  1   2   3   4   1   2   3   4   1   2   3   4   1   2   3   4
e|-------------------------------|-------------------------------|
B|-------------------------------|-------------------------------|
G|----------------5--------------|-------------------------------|
D|7-------5---7---5-------7------|-------------------------------|
A|7-------5---7---3-------7------|5-6-5-3-5---0---3b------0------|
E|5-------3---3-----------5------|-------------------------------|

  Bitch   eat my  ca-   -ancer.   Then I know we're really dancin'.

  1   2   3   4   1   2   3   4   1   2   3   4   1   2   3   4
e|-------------------------------|-------------------------------|
B|-------------------------------|-------------------------------|
G|----------------5--------------|-------------------------------|
D|7-------5---7---5-------7------|-------------------------------|
A|7-------5---7---3-------7------|5-6-5-3-5---0---3b------0------|
E|5-------3---3-----------5------|-------------------------------|

  Bitch   eat my  ca-   -ancer.   Then I know we're takin' chances.

  1   2   3   4   1   2   3   4   1   2   3   4   1   2   3   4
e|-------------------------------|-------------------------------|
B|-------------------------------|-------------------------------|
G|----------------5--------------|-------------------------------|
D|7-------5---7---5-------7------|-------------------------------|
A|7-------5---7---3-------7------|5-6-5-3-5---0---3b------0------|
E|5-------3---3-----------5------|-------------------------------|

  Bitch   eat my  ca-   -ancer.   Then I know we're really dancin'.

  1   2   3   4   1   2   3   4   1   2   3   4   1   2   3   4
                                                          t   t
e|-------------------------------|-------------------------------|
B|-------------------------------|-------------------------------|
G|----------------5--------------|-------------------------------|
D|7-------5---7---5-------7------|7---7---7---7---5---5---5-5-5--|
A|7-------5---7---3-------7------|7---7---7---7---7---7---7-7-7--|
E|5-------3---3-----------5------|5---5---5---5---5---5---5-5-5--|

  Bitch   eat my  ca-   -ancer.

[Verse]
(Pattern 1)
  1   2   3   4   1   2   3   4   1   2   3   4   1   2   3   4
  t       t   t   t       t   t   t       t   t   t   t   t
e|-------------------------------|----------------1--------------|
B|-------------------------------|7-------7-------1--------------|
G|----------------5-------5------|7-------7-------2---2---1------|
D|7-------7-------5-------5------|7-------7-------3---3---2------|
A|7-------7-------3-------3------|5-------5-------3---3---2------|
E|5-------5---x---------------x--|----------------1---1---0------|

Most of my guilt, all of my tears, flow like a river 'cause I failed and I couldn't de

  1   2   3   4   1   2   3   4   1   2   3   4   1   2   3   4
  t       t   t   t       t   t   t       t       t   t   t   t
e|-------------------------------|----------------1--------------|
B|-------------------------------|7-------7-------1--------------|
G|----------------5-----5-5------|7-------7-------2---2---1------|
D|7-----7-7-------5-----5-5------|7-------7-------3---3---2------|
A|7-----7-7-------3-----3-3------|5-------5-------3---3---2------|
E|5-----5-5-x---x-------------x--|------x-----0---1---1---0------|

-liver.              That's when I started to shiver.        I said

(Pattern 2)
  1   2   3   4   1   2   3   4   1   2   3   4   1   2   3   4
  t       t   t   t       t       t       t
e|-------------------------------|----------------1---m---0---m--|
B|------------------------5------|7-------7-------1---m---0---m--|
G|----------------5-------5------|7-------7-------2---m---1---m--|
D|7-------7-------5-------5------|7-------7-------3---m---2---m--|
A|7-------7-------3-------3--/5--|5-------5-------3---m---2---m--|
E|5-------5---x------------------|----------------1---m---0---m--|

  fuck the whole world, I'm a little girl, I'm a little girl and I'm a big black dog. I'm a

  1   2   3   4   1   2   3   4   1   2   3   4   1   2   3   4
          ^                               <       t   t   t
e|--------5----------------------|--------x----------------------|
B|--------5----------------------|--------x----------------------|
G|--------x-------5-------5------|7-------x----------------------|
D|7-------7-------5-------5------|7---7-7-x-------3---3---2------|
A|7-------7-------3-------3------|5---5-5-x-------3---3---2------|
E|5-------5---x---------------x--|--------x---x---1---1---0------|

  killer.            I'm all over the place.               I'm tryin' to

(Play with Pattern 1...):
rehabilitate from the self-hate, from the self-rape. I forgive you
mother. Whoa whoa yeah. Lord I'm
down on my knees, prayin' I feel ashamed for all the things that I done

(...but with a new ending):
  1   2   3   4   1   2   3   4   1   2   3   4   1   2   3   4
  t       t   t   t       t   t   t       ^       <   <   <
e|-------------------------------|----------------1---1---0------|
B|-------------------------------|7-----7-7-------1---1---0------|
G|----------------5-------5------|7-----7-7-------2---2---1------|
D|7-------7-------5-------5------|7-----7-7-------3---3---2------|
A|7-------7-------3-------3------|5-----5-5-------3---3---2------|
E|5-------5---x---------------x--|----------x-0---1---1---0------|

  wrong.       All the things I done wrong.

[Chorus B]
  1   2   3   4   1   2   3   4   1   2   3   4   1   2   3   4
                                        < <     <   < <   < < <
e|-------------------------------|------5-5-----5---5-5---5-5-x--|
B|-------------------------------|------6-6-----6---6-6---6-6-x--|
G|----------------6-------6------|--------7-----7---7-7---7-7-x--|
D|7-------7-------5-------5------|7-------7-----7---7-7---7-7-x--|
A|7-------7-------7-------7------|5-------5-----5---5-5---5-5-x--|
E|5-------5---x---5-------5------|-------------------------------|

  A-             -a-            -men
  1   2   3   4   1   2   3   4   1   2   3   4   1   2   3   4
                                          <   < < <   <   < < <
e|3-------3-------3-------3------|-------------------------------|
B|3-------3-------3-------3------|--------5-----5----------------|
G|4-------4-------4-------4------|--------5-----5-----4---4-4-4--|
D|5-------5-------3-------3------|5-------5---5---5---5---5-5-5--|
A|5-------5-------5-------5------|3-------3---3---3---5---5-5-5--|
E|3-------3---3---3---3---3---3--|--------------------3---3-3-3--|

  A-             -a-            -men
  1   2   3   4   1   2   3   4   1   2   3   4   1   2   3   4
e|-------------------------------|5-------5-----5-----5---5-5-5--|
B|5-m----------------------------|6-------6-----6-----6---6-6-6--|
G|5-m----------------------------|7---7---7-----7-----7---7-7-7--|
D|7-m----------------------------|7---7---7---7-----7-----7-7-7--|
A|7-m----------------------------|5-----------5-----5-----5-5-5--|
E|5-m----------------------------|-------------------------------|

      A-          -a           A -men
  1   2   3   4   1   2   3   4   1   2   3   4   1   2   3   4
                          <                               < < <
e|-------------------------------|-------------------------------|
B|-------------------------------|-------------------------------|
G|-------------------------------|-------------------------------|
D|7---7---7---7---7---7---0------|-------------------------------|
A|6---6---6---6---6---6--/12-----|13--13--13--13--13--13--x-x-x--|
E|------------------------x---x--|12--12--12--12--12--12--x-x-x--|

         Feel that change.                Feel that change.

[Chorus A]
(With this ending instead):

  1   2   3   4   1   2   3   4   1   2   3   4   1   2   3   4
e|-------------------------------|-------------------------------|
B|-------------------------------|-------------------------------|
G|----------------5--------------|-------------------------------|
D|7-------5---7---5-------7------|-------------------------------|
A|7-------5---7---3-------7------|5-6-5-3-5---0---3b------0------|
E|5-------3---3-----------5------|-------------------------------|

  Bitch   eat my  ca-   -ancer.

[Chorus B]
  1   2   3   4   1   2   3   4   1   2   3   4   1   2   3   4
                                        < <     <   < <   < < <
e|-------------------------------|------5-5-----5---5-5---5-5-x--|
B|-------------------------------|------6-6-----6---6-6---6-6-x--|
G|----------------6-------6------|--------7-----7---7-7---7-7-x--|
D|7-------7-------5-------5------|7-------7-----7---7-7---7-7-x--|
A|7-------7-------7-------7------|5-------5-----5---5-5---5-5-x--|
E|5-------5---x---5-------5------|-------------------------------|

  A-             -a-            -men
  1   2   3   4   1   2   3   4   1   2   3   4   1   2   3   4
                                          <   < < <   <   < < <
e|3-------3-------3-------3------|-------------------------------|
B|3-------3-------3-------3------|--------5-----5----------------|
G|4-------4-------4-------4------|--------5-----5-----4---4-4-4--|
D|5-------5-------3-------3------|5-------5---5---5---5---5-5-5--|
A|5-------5-------5-------5------|3-------3---3---3---5---5-5-5--|
E|3-------3---3---3---3---3---3--|--------------------3---3-3-3--|

  A-             -a-            -men
  1   2   3   4   1   2   3   4   1   2   3   4   1   2   3   4
e|-------------------------------|5-------5-----5-----5---5-5-5--|
B|5-m----------------------------|6-------6-----6-----6---6-6-6--|
G|5-m----------------------------|7---7---7-----7-----7---7-7-7--|
D|7-m----------------------------|7---7---7---7-----7-----7-7-7--|
A|7-m----------------------------|5-----------5-----5-----5-5-5--|
E|5-m----------------------------|-------------------------------|

      A-          -a           A -men
  1   2   3   4   1   2   3   4   1   2   3   4   1   2   3   4
                          <                               < < <
e|-------------------------------|-------------------------------|
B|-------------------------------|-------------------------------|
G|-------------------------------|-------------------------------|
D|7---7---7---7---7---7---0------|-------------------------------|
A|6---6---6---6---6---6--/12-----|13--13--13--13--13--13--x-x-x--|
E|------------------------x---x--|12--12--12--12--12--12--x-x-x--|

         Feel that change.                Feel that change.

[Chorus A]
(With this ending instead):

  1   2   3   4   1   2   3   4   1   2   3   4   1   2   3   4
e|-------------------------------|-------------------------------|
B|-------------------------------|-------------------------------|
G|----------------5--------------|-------------------------------|
D|7-------5---7---5-------7------|-------------------------------|
A|7-------5---7---3-------7------|-------------------------------|
E|5-------3---3-----------5------|-------------------------------|

  Bitch   eat my  ca-   -ancer.


************************************

| x  Dead note
| b  Bend
| /  Slide up
| m   Mute string
| ^   Strike and mute
| <   Accent (strike with fingernails)
| t   Tap guitar body

************************************

            
            
Suggest correction
Creating personal tab
Creating personal tab
You can edit any tab online and save it as your Personal.

You can edit, replace or remove any tab part or add personal notes – all changes will be seen only by you.

Personal tabs can be accessed anytime from any device, even offline.
Learn more »
Give kudos to tab author, rate the tab!
1 2 3 4 5
comments
print report bad tab
guest
You may want to rate the tab now too:
select rating
Wanna post a correction for this tab? Suggest correction