Oops, an error
Loading. Please wait.

Bury White tab

version 1
version 1

Whole song

Interactive

by Far
1,602 views 1 this week
1 commentread comment
1 2 3 4 5
2 more votes to show rating
add to favorites
×
Save as Personal and add changes to this tab that will be seen only by you. Learn more ›
×
You can save this tab as Personal to edit and correct it or add notes. All changes will be seen only by you. Learn more »
launch autoscroll
font size
0
reset
how to read this tab
guitar tuner
edit
Autoscroll
slow
fast
+/-
esc
set tempo
stop
Author
=========Far---Bury White=========

BAND:FAR
ALBUM:WATER & SOLUTIONS

this is a pretty easy song 2 play im pretty much 100% sure this is right cause Shaun 
playz the riff in the same sort of patern.ok i'll shut up now here it is....
Drop D tuning

LISTEN 2 THE CD FOR STRUMMING PATTERN

VERSE RIFF:
E------------------------|
B--66-666-6666-----------|
G--55-555-5555-----------|
D--33-333-3333-----------|
A--44-444-4444-----------|
D--00-000-0000-----------|

PRE CHORUS:
E------------------------|
B------------------------|
G------------------------|
D--400000040000004000000-|
A--400000040000004000000-|
D--400000040000004000000-|

CHORUS(ITS ALRIGHT......)
E------------------------------|
B------------------------------|
G-1111111111111111-------------|
D-XXXXXXXXXXXXXXX44440~~-------|
A-99999999999999944440~~-------|
D----------------44440~~-------|

INTERLUDE BIT
E------------------------------|
B------------------------------|
G------------------------------|
D--4000040000400004000040005/77|
A--4000040000400004000040005/77|
D--4000040000400004000040005/77|

            
            
Suggest correction
Creating personal tab
Creating personal tab
You can edit any tab online and save it as your Personal.

You can edit, replace or remove any tab part or add personal notes – all changes will be seen only by you.

Personal tabs can be accessed anytime from any device, even offline.
Learn more »
Give kudos to tab author, rate the tab!
1 2 3 4 5
comments
print report bad tab
1 comment total.
0 reply
holy ghost 193 Feb 02, 2007 10:14 AM

the verse chord is something way more easy than that. what you put down is way off. try this isnstead...

g-7-7-777- g--------
d-x-x-xxx- ...or d--------
a-5-5-555- a-5-5-555
d-0-0-000- d-0-0-000

guest
You may want to rate the tab now too:
select rating
Wanna post a correction for this tab? Suggest correction