Oops, an error
Loading. Please wait.

About Knives tab

217 views 1 this week
no commentswrite comment
1 2 3 4 5
3 more votes to show rating
add to favorites
×
Save as Personal and add changes to this tab that will be seen only by you. Learn more ›
×
You can save this tab as Personal to edit and correct it or add notes. All changes will be seen only by you. Learn more »
launch autoscroll
font size
0
reset
how to read this tab
guitar tuner
edit
Autoscroll
slow
fast
+/-
esc
set tempo
stop
Artist: Far From Alaska
Song: About Knives
Album: ModeHuman
Tabbed by: gustavoaraujo999@hotmail.com

**Band Website: http://www.farfromalaska.com/

intro 1.
e|---------------------------------------------------------------|
B|---------------------------------------------------------------|
G|-----99999999--------------------------9999999-----------------|
D|---------------------------------------------------------------|
A|---------------------------------------------------------------|
E|-0~~~~---------------------------------------------------------|

e|-------------------------------------------7-------------------|
B|--------8-10-8-7--------------------8-10-8---------------------|
G|-----~9------------9999999--------9----------9-----------------|
D|---------------------------------------------------------------|
A|---------------------------------------------------------------|
E|-~0~~----------------------------------------------------------|

intro 2.
e|--------------------------------------------------|
B|--------------------------------------------------|
G|------------------------------------5-4-----------|
D|------------5---------------------------5------5--|
A|--------5-7---------------5----------------5-7----|
E|-0-0------------0-0---5-7-----0-0-----------------|

pre-chorus.
e|---------------------------------------------------------------|
B|---------------------------------------------------------------|
G|-1-1------------1-1-----------1-1------------------------------|
D|-2-2------------2-2-----------2-2------------------------------|
A|-2-2------------2-2-----------2-2------------------------------|
E|-0-0--------x-x-0-0-------x-x-0-0------------------------------|

e|---------------------------------------------------------------|
B|---------------------------------------------------------------|
G|-1-1------------1-1-----------1-1------------------------------|
D|-2-2------------2-2-----------2-2------------------------------|
A|-2-2------------2-2-----------2-2------------------------------|
E|-0-0-------x-x--0-0-------x-x-0-0------------------------------|

e|---------------------------------------------------------------|
B|---------------------------------------------------------------|
G|-1-1------------1-1-----------1-1------------------------------|
D|-2-2------------2-2-----------2-2------------------------------|
A|-2-2------------2-2-----------2-2------------------------------|
E|-0-0-------x-x--0-0-------x-x-0-0------------------------------|

e|---------------------------------------------------------------|
B|------------------------------------------------------6--------|
G|-1-1------------1-1-----------1-1-----5-4--------5------7------|
D|-2-2------------2-2-----------2-2---------5--5-7---7-----------|
A|-2-2------------2-2-----------2-2------------------------------|
E|-0-0-------x-x--0-0-------x-x-0-0------------------------------|

chorus.
e|-------------------------------|---------------------------x-x-|
B|-------------------------------|---------------------------x-x-|
G|-------------------------------|---------------------------x-x-|
D|-------------------------------|---------------------------x-x-|
A|-----7--5------------------5-7-|-----7--5------------------x-x-|
E|-0--------7-5-3-0---3--5-7-----|-0--------7-5-3-0---3--5-7-x-x-|

e|-------------------------------|-------------------------------|
B|-------------------------------|-------------------------------|
G|-------------------------------|-------------------------------|
D|-------------------------------|----------------------3--------|
A|-----7--5------------------5-7-|-----7--5---------3-----5------|
E|-0--------7-5-3-0---3--5-7-----|-0--------7-5-3-5---5----------|

e|-------------------------------|---------------------------x-x-|
B|-------------------------------|---------------------------x-x-|
G|-------------------------------|---------------------------x-x-|
D|-------------------------------|---------------------------x-x-|
A|-----7--5------------------5-7-|-----7--5------------------x-x-|
E|-0--------7-5-3-0---3--5-7-----|-0--------7-5-3-0---3--5-7-x-x-|

e|-------------------------------|-------------------------------|
B|-------------------------------|-------------------------------|
G|-------------------------------|-------------------------------|
D|-------------------------------|----------------------3--------|
A|-----7--5------------------5-7-|-----7--5---------3-----5------|
E|-0--------7-5-3-0---3--5-7-----|-0--------7-5-3-5---5----------|

bridge 1.
e|----------------|
B|----------------|
G|----------------|
D|----------------|
A|-7--5\3---------|
E|--------5-3-----|

e|---------------------------------------------|
B|---------------------------------[x6]--------|
G|---------------------------------------------|
D|-2/5------2/5------2/5-----------------------|
A|-2/5-7\---2/5-7\---2/5-7\--/-7-5-7---7-5-7---|
E|-0--------0--------0-------------------------|
                                                                                
bridge 2.
e|-----------------------------------------------------------------------|
B|-----------------------------------------------------------------------|
G|-----------------------------------------------------------------------|
D|-----------------------------------------------------------------------|
A|-----------------------------------------------------------------------|
E|-5-3-5--5-3-5/--10-8-10--10-8-10\--7-5-7--7-5-7/--12-10-12--12-10-12---|

e|-----------------------------------------------------------------------|
B|-----------------------------------------------------------------------|
G|-----------------------------------------------------------------------|
D|-----------------------------------------------------------------------|
A|-----------------------------------------------------------------------|
E|-5-3-5--5-3-5/--10-8-10--10-8-10\--7-5-7--7-5-7/--12-10-12--12-10-12---|

e|-----------------------------------------------------------------------|
B|-----------------------------------------------------------------------|
G|-----------------------------------------------------------------------|
D|-----------------------------------------------------------------------|
A|-----------------------------------------------------------------------|
E|-5-3-5--5-3-5/--10-8-10--10-8-10\--7-5-7--7-5-7/--12-10-12--12-10-12---|

e|----------------------------------------------------------------------|
B|----------------------------------------------------------------------|
G|----------------------------------------------------------------------|
D|----------------------------------------------------------------------|
A|----------------------------------------------------------------------|
E|-5-3-5--5-3-5/--10-8-10--10-8-10\--7-5-7--7-5-7/----------------------|

bridge 3.
e|-------------------------|
B|-------------------------|
G|-1-1---6-6---7-7---8-8---|
D|-2-2---7-7---7-7---9-9---|
A|-2-2---7-7---5-5---9-9---|
E|-0-0---5-5---------7-7---|

e|--------------------------------------------------|
B|--------------------------------------------------|
G|------------------------------------5-4-----------|
D|------------5---------------------------5------5--|
A|--------5-7---------------5----------------5-7----|
E|-0-0------------0-0---5-7-----0-0-----------------|

e|--------------------------------------------------|
B|--------------------------------------------------|
G|------------------------------------5-4-----------|
D|------------5---------------------------5------5--|
A|--------5-7---------------5----------------5-7----|
E|-0-0------------0-0---5-7-----0-0-----------------|

e|--------------------------------------------------|
B|--------------------------------------------------|
G|------------------------------------5-4-----------|
D|------------5---------------------------5------5--|
A|--------5-7---------------5----------------5-7----|
E|-0-0------------0-0---5-7-----0-0-----------------|

e|-------------------------------------------------------|
B|---------------------------------------------------6---|
G|------------------------------------5-4--------5-----7-|
D|------------5---------------------------5--5-7---7-----|
A|--------5-7---------------5----------------------------|
E|-0-0------------0-0---5-7-----0-0----------------------|

chorus.
e|-------------------------------|---------------------------x-x-|
B|-------------------------------|---------------------------x-x-|
G|-------------------------------|---------------------------x-x-|
D|-------------------------------|---------------------------x-x-|
A|-----7--5------------------5-7-|-----7--5------------------x-x-|
E|-0--------7-5-3-0---3--5-7-----|-0--------7-5-3-0---3--5-7-x-x-|

e|-------------------------------|-------------------------------|
B|-------------------------------|-------------------------------|
G|-------------------------------|-------------------------------|
D|-------------------------------|----------------------3--------|
A|-----7--5------------------5-7-|-----7--5---------3-----5------|
E|-0--------7-5-3-0---3--5-7-----|-0--------7-5-3-5---5----------|

e|-------------------------------|---------------------------x-x-|
B|-------------------------------|---------------------------x-x-|
G|-------------------------------|---------------------------x-x-|
D|-------------------------------|---------------------------x-x-|
A|-----7--5------------------5-7-|-----7--5------------------x-x-|
E|-0--------7-5-3-0---3--5-7-----|-0--------7-5-3-0---3--5-7-x-x-|

e|-------------------------------|-------------------------------|
B|-------------------------------|-------------------------------|
G|-------------------------------|-------------------------------|
D|-------------------------------|----------------------3--------|
A|-----7--5------------------5-7-|-----7--5---------3-----5------|
E|-0--------7-5-3-0---3--5-7-----|-0--------7-5-3-5---5----------|


            
            
Suggest correction
Creating personal tab
Creating personal tab
You can edit any tab online and save it as your Personal.

You can edit, replace or remove any tab part or add personal notes – all changes will be seen only by you.

Personal tabs can be accessed anytime from any device, even offline.
Learn more »
Give kudos to tab author, rate the tab!
1 2 3 4 5
comments
print report bad tab
guest
You may want to rate the tab now too:
select rating
Wanna post a correction for this tab? Suggest correction