Oops, an error
Loading. Please wait.

Sea Song tab

103 views 3 this week
no commentswrite comment
1 2 3 4 5
3 more votes to show rating
add to favorites
×
Save as Personal and add changes to this tab that will be seen only by you. Learn more ›
×
You can save this tab as Personal to edit and correct it or add notes. All changes will be seen only by you. Learn more »
launch autoscroll
font size
0
reset
how to read this tab
guitar tuner
edit
Autoscroll
slow
fast
+/-
esc
set tempo
stop
[Intro] 0:00 - 0:53
E|---------------------|---------------------|---------------------|---------------------|
B|---------------------|---------------------|---------------------|---------------------|
G|-----------13--------|-----------13--------|-----------8---------|-----------8---------|
D|------11--------11---|------11--------11---|------6---------6----|------6---------6----|
A|-12------------------|---------------------|---------------------|---------------------|
E|---------------------|-12------------------|-7-------------------|-7-------------------|

E|---------------------|---------------------|---------------------|---------------------|
B|---------------------|---------------------|---------------------|---------------------|
G|-----------13--------|-----------13--------|-----------8---------|-----------8---------|
D|------11--------11---|------11--------11---|------6---------6----|------6---------6----|
A|-12------------------|---------------------|---------------------|---------------------|
E|---------------------|-12------------------|-7-------------------|-7-------------------|

E|---------------------|---------------------|---------------------|---------------------|
B|---------------------|---------------------|---------------------|---------------------|
G|-----------13--------|-----------13--------|-----------8---------|-----------8---------|
D|------11--------11---|------11--------11---|------6---------6----|------6---------6----|
A|-12------------------|---------------------|---------------------|---------------------|
E|---------------------|-12------------------|-7-------------------|-7-------------------|

E|---------------------|---------------------|---------------------|---------------------|
B|---------------------|---------------------|---------------------|---------------------|
G|-----------13--------|-----------13--------|-----------8---------|-----------8----9----|
D|------11--------11---|------11--------11---|------6---------6----|---------------------|
A|-12------------------|---------------------|---------------------|---------------------|
E|---------------------|-12------------------|-7-------------------|-7-------------------|

E|---------------------|---------------------|---------------------|---------------------|
B|---------------------|---------------------|---------------------|---------------------|
G|-8----9----8---------|-----------13--------|-----------13--------|-----------8---------|
D|---------------------|------11--------11---|------11--------11---|------6---------6----|
A|---------------------|-12------------------|---------------------|---------------------|
E|---------------------|---------------------|-12------------------|-7-------------------|

E|---------------------|---------------------|---------------------|---------------------|
B|---------------------|---------------------|---------------------|---------------------|
G|-----------8---------|-----------9---------|---------------------|-----------13--------|
D|------6---------6----|------7--------------|-12---10---12---10---|------11--------11---|
A|---------------------|---------------------|---------------------|-12------------------|
E|-7-------------------|-8-------------------|---------------------|---------------------|

E|---------------------|---------------------|---------------------|---------------------|
B|---------------------|---------------------|---------------------|---------------------|
G|-----------13--------|-----------8---------|-----------8---------|-----------13--------|
D|------11--------11---|------6---------6----|------6---------6----|------11--------11---|
A|---------------------|---------------------|---------------------|-12------------------|
E|-12------------------|-7-------------------|-7-------------------|---------------------|

E|---------------------|---------------------|---------------------|---------------------|
B|---------------------|---------------------|---------------------|---------------------|
G|-----------13--------|-----------8---------|-----------8----9----|-8----9----8---------|
D|------11--------11---|------6---------6----|---------------------|---------------------|
A|---------------------|---------------------|---------------------|---------------------|
E|-12------------------|-7-------------------|-7-------------------|---------------------|

E|---------------------|---------------------|---------------------|---------------------|
B|---------------------|---------------------|---------------------|---------------------|
G|-----------13--------|-----------13--------|-----------8---------|-----------8---------|
D|------11--------11---|------11--------11---|------6---------6----|------6---------6----|
A|-12------------------|---------------------|---------------------|---------------------|
E|---------------------|-12------------------|-7-------------------|-7-------------------|

E|---------------------|---------------------|---------------------|---------------------|
B|---------------------|---------------------|---------------------|---------------------|
G|-----------9---------|---------------------|-13---13---13--------|-13---13---13--------|
D|------7--------------|-12---10---12---10---|-11---11---11--------|-11---11---11--------|
A|---------------------|---------------------|-12---12---12--------|---------------------|
E|-8-------------------|---------------------|---------------------|-12---12---12--------|

E|---------------------|---------------------|---------------------|---------------------|
B|---------------------|---------------------|---------------------|---------------------|
G|-8----8----8---------|-8----8----8---------|-13---13---13--------|-13---13---13--------|
D|-6----6----6---------|-6----6----6---------|-11---11---11--------|-11---11---11--------|
A|---------------------|---------------------|-12---12---12--------|---------------------|
E|-7----7----7---------|-7----7----7---------|---------------------|-12---12---12--------|

E|---------------------|---------------------|---------------------|---------------------|
B|---------------------|---------------------|---------------------|---------------------|
G|-8----8----8---------|-8----8----8---------|-13---13---13--------|-13---13---13--------|
D|-6----6----6---------|-6----6----6---------|-11---11---11--------|-11---11---11--------|
A|---------------------|---------------------|-12---12---12--------|---------------------|
E|-7----7----7---------|-7----7----7---------|---------------------|-12---12---12--------|

E|---------------------|---------------------|---------------------|---------------------|
B|---------------------|---------------------|---------------------|---------------------|
G|-8----8----8---------|-8----8----8---------|-13---13---13--------|-13---13---13--------|
D|-6----6----6---------|-6----6----6---------|-11---11---11--------|-11---11---11--------|
A|---------------------|---------------------|-12---12---12--------|---------------------|
E|-7----7----7---------|-7----7----7---------|---------------------|-12---12---12--------|

[Verse 1] 0:53 - 1:36
E|---------------------|---------------------|---------------------|---------------------|
B|---------------------|---------------------|---------------------|---------------------|
G|-8----8----8---------|-8----8----8---------|-13--------13---13---|---------------------|
D|-6----6----6---------|-6----6----6---------|-11--------11---11---|-0--------------0----|
A|---------------------|---------------------|-12--------12---12---|-----------11--------|
E|-7----7----7---------|-7----7----7---------|---------------------|------12-------------|

E|---------------------|---------------------|---------------------|---------------------|
B|---------------------|---------------------|---------------------|---------------------|
G|-13------------------|-----------13--------|------9---------9----|-9---------9----9----|
D|------0--------------|------0---------0----|------7---------7----|-7---------7----7----|
A|-----------11--------|-11------------------|-11------------------|---------------------|
E|----------------12---|---------------------|------8---------8----|-8---------8----8----|

E|---------------------|---------------------|---------------------|---------------------|
B|---------------------|---------------------|---------------------|---------------------|
G|-11---11-------------|-13--------13---13---|---------------------|-13------------------|
D|-9----9--------------|-11--------11---11---|-0--------------0----|------0--------------|
A|---------------------|-12--------12---12---|-----------11--------|-----------11--------|
E|-10---10-------------|---------------------|------12-------------|----------------12---|

E|---------------------|---------------------|---------------------|---------------------|
B|---------------------|---------------------|---------------------|---------------------|
G|-----------13--------|------9---------9----|-9---------9----9----|-11---11-------------|
D|------0---------0----|------7---------7----|-7---------7----7----|-9----9--------------|
A|-11------------------|-11------------------|---------------------|---------------------|
E|---------------------|------8---------8----|-8---------8----8----|-10---10-------------|

E|---------------------|---------------------|---------------------|---------------------|
B|---------------------|---------------------|---------------------|---------------------|
G|-13--------13---13---|---------------------|-13------------------|-----------13--------|
D|-11--------11---11---|-0--------------0----|------0--------------|------0---------0----|
A|-12--------12---12---|-----------11--------|-----------11--------|-11------------------|
E|---------------------|------12-------------|----------------12---|---------------------|

E|---------------------|---------------------|---------------------|---------------------|
B|---------------------|---------------------|---------------------|---------------------|
G|------9---------9----|-9---------9----9----|-11---11-------------|-13--------13---13---|
D|------7---------7----|-7---------7----7----|-9----9--------------|-11--------11---11---|
A|-11------------------|---------------------|---------------------|-12--------12---12---|
E|------8---------8----|-8---------8----8----|-10---10-------------|---------------------|

E|---------------------|---------------------|---------------------|---------------------|
B|---------------------|---------------------|---------------------|---------------------|
G|---------------------|-13------------------|-----------13--------|------9---------9----|
D|-0--------------0----|------0--------------|------0---------0----|------7---------7----|
A|-----------11--------|-----------11--------|-11------------------|-11------------------|
E|------12-------------|----------------12---|---------------------|------8---------8----|

E|---------------------|---------------------|---------------------|---------------------|
B|---------------------|---------------------|---------------------|---------------------|
G|-9---------9----9----|-11---11-------------|-13--------13---13---|---------------------|
D|-7---------7----7----|-9----9--------------|-11--------11---11---|-0--------------0----|
A|---------------------|---------------------|-12--------12---12---|-----------11--------|
E|-8---------8----8----|-10---10-------------|---------------------|------12-------------|

E|---------------------|---------------------|---------------------|---------------------|
B|---------------------|---------------------|---------------------|---------------------|
G|-13------------------|-----------13--------|------9---------9----|-9---------9----9----|
D|------0--------------|------0---------0----|------7---------7----|-7---------7----7----|
A|-----------11--------|-11------------------|-11------------------|---------------------|
E|----------------12---|---------------------|------8---------8----|-8---------8----8----|

[Verse 2] 1:36 - 2:41
E|---------------------|---------------------|---------------------|---------------------|
B|---------------------|-----------9---------|-----------3---------|-----------9---------|
G|-11---11-------------|------8--------------|------2--------------|------8--------------|
D|-9----9--------------|---------------------|---------------------|---------------------|
A|---------------------|---------------------|---------------------|---------------------|
E|-10---10-------------|-9-------------------|-3-------------------|-9-------------------|

E|---------------------|---------------------|---------------------|---------------------|
B|-----------3---------|-9-------------------|---------------------|---------------------|
G|------2--------------|-8-------------------|-----------10--------|---------------------|
D|---------------------|---------------------|------8--------------|----------------11---|
A|---------------------|---------------------|---------------------|---------------------|
E|-3-------------------|-9-------------------|-9-------------------|-9----0----9---------|

E|---------------------|---------------------|---------------------|---------------------|
B|---------------------|---------------------|---------------------|---------------------|
G|---------------------|---------------------|---------------------|---------------------|
D|-12---11---9---------|-----------12--------|----------------15---|-----------17--------|
A|---------------------|------0--------------|---------------------|---------------------|
E|----------------0----|-10------------------|-12---13-------------|-13---15-------------|

E|---------------------|---------------------|---------------------|---------------------|
B|---------------------|---------------------|---------------------|---------------------|
G|-----------10--------|---------------------|---------------------|---------------------|
D|------8--------------|----------------11---|-12---11---9---------|-----------12--------|
A|---------------------|---------------------|---------------------|------0--------------|
E|-9-------------------|-9----0----9---------|----------------0----|-10------------------|

E|---------------------|---------------------|---------------------|---------------------|
B|---------------------|---------------------|---------------------|---------------------|
G|---------------------|---------------------|-----------10--------|---------------------|
D|----------------15---|-----------17--------|------8--------------|----------------11---|
A|---------------------|---------------------|---------------------|---------------------|
E|-12---13-------------|-13---15-------------|-9-------------------|-9----0----9---------|

E|---------------------|---------------------|---------------------|---------------------|
B|---------------------|---------------------|---------------------|---------------------|
G|---------------------|---------------------|---------------------|---------------------|
D|-12---11---9---------|-----------12--------|----------------15---|-----------17--------|
A|---------------------|------0--------------|---------------------|---------------------|
E|----------------0----|-10------------------|-12---13-------------|-13---15-------------|

E|---------------------|---------------------|---------------------|---------------------|
B|---------------------|---------------------|---------------------|---------------------|
G|-----------10--------|---------------------|---------------------|---------------------|
D|------8--------------|----------------11---|-12---11---9---------|-----------12--------|
A|---------------------|---------------------|---------------------|------0--------------|
E|-9-------------------|-9----0----9---------|----------------0----|-10------------------|

E|---------------------|---------------------|---------------------|---------------------|
B|---------------------|---------------------|---------------------|---------------------|
G|---------------------|---------------------|-----------10--------|---------------------|
D|----------------15---|-----------17--------|------8--------------|----------------11---|
A|---------------------|---------------------|---------------------|---------------------|
E|-12---13-------------|-13---15-------------|-9-------------------|-9----0----9---------|

E|---------------------|---------------------|---------------------|---------------------|
B|---------------------|---------------------|---------------------|---------------------|
G|---------------------|---------------------|---------------------|---------------------|
D|-12---11---9---------|-----------12--------|----------------15---|-----------17--------|
A|---------------------|------0--------------|---------------------|---------------------|
E|----------------0----|-10------------------|-12---13-------------|-13---15-------------|

E|---------------------|---------------------|---------------------|---------------------|
B|---------------------|---------------------|---------------------|---------------------|
G|-----------10--------|---------------------|---------------------|---------------------|
D|------8--------------|----------------11---|-12---11---9---------|-----------12--------|
A|---------------------|---------------------|---------------------|------0--------------|
E|-9-------------------|-9----0----9---------|----------------0----|-10------------------|

E|---------------------|---------------------|---------------------|---------------------|
B|---------------------|---------------------|---------------------|---------------------|
G|---------------------|---------------------|-----------10--------|---------------------|
D|----------------15---|-----------17--------|------8--------------|----------------11---|
A|---------------------|---------------------|---------------------|---------------------|
E|-12---13-------------|-13---15-------------|-9-------------------|-9----0----9---------|

E|---------------------|---------------------|---------------------|---------------------|
B|---------------------|---------------------|---------------------|---------------------|
G|---------------------|---------------------|---------------------|---------------------|
D|-12---11---9---------|-----------12--------|----------------15---|-----------17--------|
A|---------------------|------0--------------|---------------------|---------------------|
E|----------------0----|-10------------------|-12---13-------------|-13---15-------------|

E|---------------------|---------------------|---------------------|---------------------|
B|---------------------|---------------------|---------------------|---------------------|
G|-----------10--------|---------------------|---------------------|---------------------|
D|------8--------------|----------------11---|-12---11---9---------|-----------12--------|
A|---------------------|---------------------|---------------------|------0--------------|
E|-9-------------------|-9----0----9---------|----------------0----|-10------------------|

[Outro] 2:41 - 4:10
E|---------------------|---------------------|--------|---------------------|---------------------|
B|---------------------|---------------------|--------|---------------------|---------------------|
G|---------------------|---------------------|--------|---------------------|---------------------|
D|----------------15---|-----------17--------|--------|----------------15---|-----------17--------|
A|---------------------|---------------------|--------|---------------------|---------------------|
E|-12---13-------------|-13---15-------------|--------|-12---13-------------|-13---15-------------|

E|--------|---------------------|---------------------|--------|---------------------|
B|--------|---------------------|---------------------|--------|---------------------|
G|--------|---------------------|---------------------|--------|---------------------|
D|--------|----------------15---|-----------17--------|--------|----------------15---|
A|--------|---------------------|---------------------|--------|---------------------|
E|--------|-12---13-------------|-13---15-------------|--------|-12---13-------------|

E|---------------------|---------------------|---------------------|---------------------|
B|---------------------|-----------12--------|----------------12---|---------------------|
G|---------------------|----------------12---|---------------------|------12-------------|
D|-----------17--------|-9----10-------------|------9----10--------|-9---------9----10---|
A|---------------------|---------------------|---------------------|---------------------|
E|-13---15-------------|---------------------|---------------------|---------------------|

E|---------------------|---------------------|---------------------|---------------------|
B|-12------------------|------12-------------|-----------12--------|----------------12---|
G|------12-------------|----------------12---|----------------12---|---------------------|
D|----------------9----|-10--------9---------|-9----10-------------|------9----10--------|
A|---------------------|---------------------|---------------------|---------------------|
E|---------------------|---------------------|---------------------|---------------------|

E|---------------------|---------------------|---------------------|---------------------|
B|---------------------|-12------------------|------12-------------|-----------12--------|
G|------12-------------|------12-------------|----------------12---|----------------12---|
D|-9---------9----10---|----------------9----|-10--------9---------|-9----10-------------|
A|---------------------|---------------------|---------------------|---------------------|
E|---------------------|---------------------|---------------------|---------------------|

E|---------------------|---------------------|---------------------|---------------------|
B|----------------12---|---------------------|-12------------------|------12-------------|
G|---------------------|------12-------------|------12-------------|----------------12---|
D|------9----10--------|-9---------9----10---|----------------9----|-10--------9---------|
A|---------------------|---------------------|---------------------|---------------------|
E|---------------------|---------------------|---------------------|---------------------|

E|-----------10--------|----------------10---|---------------------|-10------------------|
B|----------------8----|---------------------|------8--------------|------8--------------|
G|---------------------|---------------------|---------------------|---------------------|
D|-9----10-------------|------9----10--------|-9---------9----10---|---------------------|
A|---------------------|---------------------|---------------------|---------------------|
E|---------------------|---------------------|---------------------|---------------------|

            
            
Suggest correction
Creating personal tab
Creating personal tab
You can edit any tab online and save it as your Personal.

You can edit, replace or remove any tab part or add personal notes – all changes will be seen only by you.

Personal tabs can be accessed anytime from any device, even offline.
Learn more »
Give kudos to tab author, rate the tab!
1 2 3 4 5
comments
print report bad tab
guest
You may want to rate the tab now too:
select rating
Wanna post a correction for this tab? Suggest correction