Oops, an error
Loading. Please wait.

Herz Verloren tab

15,263 views 18 this week
no commentswrite comment
1 2 3 4 5
x 15
add to favorites
×
Save as Personal and add changes to this tab that will be seen only by you. Learn more ›
×
You can save this tab as Personal to edit and correct it or add notes. All changes will be seen only by you. Learn more »
launch autoscroll
font size
0
reset
how to read this tab
guitar tuner
edit
Autoscroll
slow
fast
+/-
esc
set tempo
stop
[Chords]
   g  Eb F  g5 Eb5 F5  a  F  C  D5 h  G  D  E5 B5 C5
eb|3--6--8-------------0--1--0-----2--3--2-----------|
Bb|3--8--10------------1--1--1--3--3--0--3-----------|
Gb|3--8--10-----8--10--2--2--0--2--4--0--2--9--3--5--|
Db|5--8--10--5--8--10--2--3--2--0--4--0--0--9--3--5--|
Ab|5--6--8---5--6--8---0--3--3-----2--2-----7--1--3--|
Eb|3---------3------------1-----------3--------------|

[Intro] (2x)
eb|-----------------------------------------------------|
Bb|3-3-3-4-4-4-4-5-5-5-4-4-4-4-3-3-3-4-4-4-4-5-5-5-4-4-4|
Gb|-----------------------------------------------------|
Db|-----------------------------------------------------|
Ab|-----------------------------------------------------|
Eb|-----------------------------------------------------|  

eb|-----------------------------------------------------------------------------------|
Bb|15-15-15-16-16-16-16-17-17-17-16-16-16-16-15-15-15-16-16-16-16-17-17-17-16-16-16-16|
Gb|-----------------------------------------------------------------------------------|
Db|-----------------------------------------------------------------------------------|
Ab|-----------------------------------------------------------------------------------|
Eb|-----------------------------------------------------------------------------------|

[Riff 1]
(schematisch dargestellt, Rhythmus nicht akkurat)
   g        Eb    F   Fsus4 F
eb|3--3-----6-----8-----8---8-------------6-----8-----|
Bb|3--3-----8-----10----11--10------------8-----10----|
Gb|3--3-----8-3x--10----10--10---3x dann--8-4x--10-4x-|
Db|5--5-----8-----10----10--10------------8-----10----|
Ab|5--5-----6-----8-----8---8-------------6-----8-----|
Eb|3--3-----------------------------------------------|

[Verse]
      g5                               Eb5         F5
Meine Freundin sagt ich darf nicht aus dem Fenster schau'n
        g5              Eb5    F5
Denn da draußen Gibt es andere Frau'n
     g5                      Eb5   F5
Und Frauen sind für mich ein rotes Tuch
     Eb              F
Mein Untergang, mein ewiger Fluch
         g5                      Eb5           F5
Aber der Reihe nach Gehe ich zum Beispiel spazier'n
    g5                           Eb5      F5
Und sehe eine Dame dann wird's wieder passiern
     g5                           Eb5      F5
Eben noch völlig normal doch innerhalb von Sekunden
   Eb
Mutier ich zur Amöbe
     F
Mein Hirn ist verschwunden und

[Chorus]
a                    F                       C
Ich bin schon wieder dabei mein Herz zu verlier'n
                          D5
Ich bin ein Mann das kann jederzeit wieder passier'n
a                       F                      C
Ich bin schon wieder dabei mein Herz zu verlier'n
                            D
Wenn ich eins kann dann die Realität ignorier'n

[Riff 1]
(schematisch dargestellt, Rhythmus nicht akkurat)
   g        Eb    F   Fsus4 F
eb|3--3-----6-----8-----8---8-------------6-----8-----|
Bb|3--3-----8-----10----11--10------------8-----10----|
Gb|3--3-----8-3x--10----10--10---3x dann--8-4x--10-4x-|
Db|5--5-----8-----10----10--10------------8-----10----|
Ab|5--5-----6-----8-----8---8-------------6-----8-----|
Eb|3--3-----------------------------------------------|

[Verse]
        g5                   Eb5      F5
Bis zu zehnmal am Tag die selben Symptome
      g5                          Eb5       F5
Puls rast, Hände zittern und ich steh unter Strom
         g5                              Eb5       F5
Und dann muss ich wieder warten bis die Wunden verheil'n
        Eb                    F
Ich bin völlig perforiert von Armors Pfeil'n
           g5
Und darum denke ich 
       Eb5       F5                g5                        Eb5     F5
Besser leide ich drin als das ich draußen wieder unheimlich peinlich bin
        g5               Eb5    F5           Eb                 F
Mein Hausarrest ist verzeihlich denn das ist besser so für alle Beteiligten

[Chorus]
a                      F                     C
Ich bin schon wieder dabei mein Herz zu verlier'n
                            D5
Ich bin ein Mann das kann jederzeit wieder passier'n
a                       F                    C
Ich bin schon wieder dabei mein Herz zu verlier'n
                                  D5
An den Verstand braucht man hier garnicht zu appellier'n
a         F
Woho Baby sei mir nicht bös
C            B5
Woho ich bin polyamorös
a                    F                     C
Ich bin mal wieder dabei mein Herz zu verlier'n
                             D5
Ich denk ich werd es mal mit einem Tacker probier'n

[Bridge]
Eb                         Eb-D-C
Ich kann mich selber nicht versteh'n
C
Ich finde alle Frauen wunderschön
g
Und ich kann Nichts Nichts Nichts Garnichts
Nichts dagegen tun
Eb                                    Eb-D-C
Ich kann nichtmal behaupten ich wäre betrunken
C
Muss ich Scheuklappen tragen bin ich so tief gesunken
D5                                           D-Eb-F-Gb (nicht sicher)
Ich wünschte ich gegen all die Pheromone immun

[Chorus]
a                       F                     C
Ich bin schon wieder dabei mein Herz zu verlier'n
                                 D
Kann mich vielleicht mal jemand irgendwo einbetonier'n
a                       F                     C
Ich bin schon wieder dabei mein Herz zu verlier'n
                       D
Ich bin ein Mann also unheimlich schwer zu dressier'n
a         F
Woho Baby sei mir nicht bös, denn
C            B5
Woho ich bin polyamorös
a                     F                    C
Ich bin mal wieder dabei mein Herz zu verlier'n
h                       G                    D
Ich bin schon wieder dabei mein Herz zu verlier'n
                     E5
Kein Taktier'n,Anvisier'n, Konfrontier'n,Triumphier'n
h                       G                     D
Ich bin schon wieder dabei mein Herz zu verlier'n
                          E5
Werd ich denn mein ganzes Leben lang pubatier'n
h           G
Woho Bitte sei mir nicht bös
D            C5
Woho ich bin polyamorös
h                    G                      D
Ich bin mal wieder dabei mein Herz zu verlier'n
                    E5
Weil wir Männer nur für Liebe existier'n

[Ending]
eb|-----------------------------------------------------------|
Bb|5-5-5-6-6-6-6-7-7-7-6-6-6-6-5-5-5-6-6-6-6-7-7-7-6-6-6-6-5--|
Gb|-----------------------------------------------------------|
Db|-----------------------------------------------------------|
Ab|-----------------------------------------------------------|
Eb|-----------------------------------------------------------|


************************************

| b  Bend
| x  Dead note
| x dann 

************************************

            
            
Suggest correction
Creating personal tab
Creating personal tab
You can edit any tab online and save it as your Personal.

You can edit, replace or remove any tab part or add personal notes – all changes will be seen only by you.

Personal tabs can be accessed anytime from any device, even offline.
Learn more »
comments
print report bad tab
guest
You may want to rate the tab now too:
select rating
Wanna post a correction for this tab? Suggest correction