Oops, an error
Loading. Please wait.

Unter Wasser tab

version 1
version 1

Whole song

Interactive

7,682 views 1 this week
1 commentread comment
1 2 3 4 5
1 last vote to show rating
add to favorites
×
Save as Personal and add changes to this tab that will be seen only by you. Learn more ›
×
You can save this tab as Personal to edit and correct it or add notes. All changes will be seen only by you. Learn more »
launch autoscroll
font size
0
reset
how to read this tab
guitar tuner
edit
Autoscroll
slow
fast
+/-
esc
set tempo
stop
 e -----------------------------------------------|
 h -1--121--111-21--1--121--4444444---------------|
 g -----------------------------------------------|
 d -----------------------------------------------|
 a -----------------------------------------------|
 e -----------------------------------------------|        x2

 e -3--343--333-43--3-343-666666------------------|
 h -----------------------------------------------|
 g -----------------------------------------------|
 d -----------------------------------------------|
 a -----------------------------------------------|
 e -----------------------------------------------|        x2

 Bass

 g -----------------------------------------------|
 d -----------------------------------------------|
 a -3-33-3-3333333-3-33---------------------------|
 e --------------------4-444444-------------------|        x2

und dann als Begleitung mit dem Schlagzeug zur Strophe...

Komm lass dich von mir entführen,
in meinen Traum von letzter Nacht.
Gib mir die Hand, ich muss dich spüren.
Fast wär ich nicht mehr aufgewacht.


Es war so klar.
Ein Traum und doch wahr.


Cm        G#                D#
In meinem Traum steh ich am Meer,
          B
mit dem Gefühl, als ob es gleich zu Ende wär.
Cm           G#             D#
Ich seh mich um, ich bin allein.
          D#
Ich nehme Anlauf und dann springe ich hinein.

 e -----------------------------------------------|
 h -1--121--111-21--1--121--4444444---------------|
 g -----------------------------------------------|
 d -----------------------------------------------|
 a -----------------------------------------------|
 e -----------------------------------------------|        x2

 g -----------------------------------------------|
 d -----------------------------------------------|
 a -3-33-3-3333333-3-33---------------------------|
 e --------------------4-444444-------------------|        x2

wieder die ganze Strophe durch


Als hätt es nur auf mich gewartet,
als ob das Meer ein Raubtier wär.
Ich hab's gesehen -
grausam und doch schön.


Cm        G#                D#
In meinem Traum steh ich am Meer,
           B
mit dem Gefühl, als ob es gleich zu Ende wär.
Cm           G#             D#
Ich seh mich um, ich bin allein.
          B                              G#
Ich nehme Anlauf und dann springe ich hinein,
                       nur Bass und Schlagzeug
und gehe unter wie ein Stein,
G#                               Gm
doch unter Wasser kann man nicht schreien...


B
Ich wollte jeden Tag so leben, als ob's der Letzte wär.
    Cm
Die Welt aus ihren Angeln heben - jetzt ertrinke ich im Meer.
B
Ich kämpfte wie ein kleiner Junge und dann habe ich gelacht,
Cm                         Gm                              G#
Wasser füllte meine Lunge, davon bin ich schließlich aufgewacht.

Cm         G#               D#
In meinem Traum steh ich am Meer,
           B
mit dem Gefühl, als ob es gleich zu Ende wär.
Cm           G#             D#
Ich seh mich um, ich bin allein.
              B
Ich nehme Abschied und dann springe ich hinein.


Cm          G#              D#
Zum letzten Mal seh ich das Meer.
            B
Es sieht so aus, als ob es nie zu Ende wär.
Cm           G#                  D#
Das Meer ist tief, das Meer ist groß,
         B
und der Himmel ist für immer wolkenlos.


Ich find das das so ganz okay is, wie ich das gmacht habe...
    by Nurri

            
            
Suggest correction
Creating personal tab
Creating personal tab
You can edit any tab online and save it as your Personal.

You can edit, replace or remove any tab part or add personal notes – all changes will be seen only by you.

Personal tabs can be accessed anytime from any device, even offline.
Learn more »
Give kudos to tab author, rate the tab!
1 2 3 4 5
comments
print report bad tab
1 comment total.
0 reply
Astaldo 92 Jun 12, 2007 08:21 AM

jaaaa... geht so... grundlage is echt okay! in der studioversion sind 2 gitarren.. wenn mans mit einer zocken will, is das hier mit meinen kleinen verbesserungen auch okay ;)

also das Intro spielt farin mit nem oktaver oder so. und dann eher

e|---------------------------|
b|---------------------------|
g|-5--5-5/6-5-(3)------88888-|
d|-x--x-x/x-x-(x)------xxxxx-|
a|-3--3-3/4-3-(1)--...-66666-|
e|---------------------------|
timing musste selber raushören ;)

und dann im Chorus:
statt dem B5 ein A#5! Also: C#5 G#5 D#5 A#5
in der bridge stimmt auch einiges nicht.. hab ich aber grad keine lust drauf ... ^^
hör nochmal genau hin

guest
Wanna post a correction for this tab? Suggest correction