Oops, an error
Loading. Please wait.

Dove Sei tab

232 views 3 this week
no commentswrite comment
1 2 3 4 5
3 more votes to show rating
add to favorites
×
Save as Personal and add changes to this tab that will be seen only by you. Learn more ›
×
You can save this tab as Personal to edit and correct it or add notes. All changes will be seen only by you. Learn more »
launch autoscroll
font size
0
reset
how to read this tab
guitar tuner
edit
Autoscroll
slow
fast
+/-
esc
set tempo
stop
Author
[VERSE]

lead:
E|--------------------------------------------------------------|--
B|--7--------------7--------------7--------------7--------------|--
G|-----6--6--6--6-----6--6--6--6-----6--6--6--6-----6--6--6--6--|-- 
D|--------------------------------------------------------------|--
A|--------------------------------------------------------------|--
E|--------------------------------------------------------------|--

E|--------------------------------------------------------------|--
B|--5--------------5--------------5--------------5--------------|--
G|-----6--6--6--6-----6--6--6--6-----6--6--6--6-----6--6--6--6--|-- 
D|--------------------------------------------------------------|--
A|--------------------------------------------------------------|--
E|--------------------------------------------------------------|--


rhythm:
A5                            C#m
Dove sei? Sai la risposta, ma la chiedi a me
C#m
Come se i sassi potessero muoversi
A5                            C#m
Cosa fai? Sempre lo stesso, ma lo chiedi a me
C#m
Come coi Lego OH!


[CHORUS]
A5                            B5 C#m D5 E
Perchè il mondo è già troppo grande
A5                            B5 C#m D5 E
Una famiglia è già troppo grande
A5                            B5 C#m D5 E
Ci abituiamo a far troppe domande
A5                            B5 C#m D5 E
Non ascoltiamo neanche le risposte
Se!

E|----------------------------------------------------|--
B|--7-----------7-----------7--------------5h7--5-----|--
G|-----6--6--6-----6--6--6-----6--6--6----------------|--
D|----------------------------------------------------|--
A|----------------------------------------------------|--
E|----------------------------------------------------|--

OH!


[VERSE]

lead:
E|--------------------------------------------------------------|--
B|--7--------------7--------------7--------------7--------------|--
G|-----6--6--6--6-----6--6--6--6-----6--6--6--6-----6--6--6--6--|--
D|--------------------------------------------------------------|--
A|--------------------------------------------------------------|--
E|--------------------------------------------------------------|--

E|--------------------------------------------------------------|--
B|--5--------------5--------------5--------------5--------------|--
G|-----6--6--6--6-----6--6--6--6-----6--6--6--6-----6--6--6--6--|--
D|--------------------------------------------------------------|--
A|--------------------------------------------------------------|--
E|--------------------------------------------------------------|--

rhythm:
A5                                C#m
Tu verrai Sai la risposta È una costante ormai
C#m                        
Come se un gesto cambiasse le cose 
A5                         C#m
Parlerai siamo vissuti Non ce la farei 
C#m
Sai la parola fra noi non funziona


[CHORUS]

A
Perchè il mondo è già troppo grande
A
Perchè il mondo è già troppo grande
A
Perchè il mondo è già troppo grande
A
Perchè il mondo è già troppo grande
A
Una famiglia è già troppo grande


[OUTRO]

A5 C#m5 A5 C#m5 
A5 C#m5 A5 C#m5 
A5 C#m5


A5

            
            
Suggest correction
Creating personal tab
Creating personal tab
You can edit any tab online and save it as your Personal.

You can edit, replace or remove any tab part or add personal notes – all changes will be seen only by you.

Personal tabs can be accessed anytime from any device, even offline.
Learn more »
Give kudos to tab author, rate the tab!
1 2 3 4 5
comments
print report bad tab
guest
You may want to rate the tab now too:
select rating
Wanna post a correction for this tab? Suggest correction