Oops, an error
Loading. Please wait.

Dark Days chords

version 1
version 1

Whole song

9,952 views 12 this week
5 commentsread comments
1 2 3 4 5
x 6
add to favorites
×
Save as Personal and add changes to this tab that will be seen only by you. Learn more ›
×
You can save this tab as Personal to edit and correct it or add notes. All changes will be seen only by you. Learn more »
launch autoscroll
font size
0
reset
transpose
0
reset
display chords
guitar tuner
edit
Autoscroll
slow
fast
+/-
esc
set tempo
stop
Author
Difficulty
Strumming
There is no strumming pattern for this song yet. and get +5 IQ
tabbed by James van Rooyen

[Intro and first part]

    Em
e|--0--0--0--0--------------------------------------------------------|
B|--0--0--0--0--------------------------------------------------------|
G|--0--0--0--0--------------------------------------------------------|
D|--2--0--0--0--------------------------------------------------------|
A|--2--2--4--3--------------------------------------------------------|
E|--0--0--0--0--------------------------------------------------------|

Learning to breathe again
for the first time
In so long now
Learning to see again
through my pride
Learning to speak again
from my heart
Learning to be a friend
for the first time
for the first time
in so long
for so long (x7)

[Second Part]
(Hang on the Em, add bass fills and harmonics)

Feel like I'm losing time
when I worry
'cos yesterday won't change
Starting to free my mind
from the shadow of doubt
that keeps me in darkness

[Third Part]
Chords: 

Em D Bm C

Em          D
testing the air outside
   Bm
my chamber
         C
into the danger
pushing my limits high
to the red line and over
and why have i waited
so long
for so long (x6)
oh
why have I waited?
why have I waited, yeah
well it's hard to be happy
in a world that's so cruel
where the weak just get weaker
where the powerful feud
where the children go hungry
while the soldiers stand by
lay down your weapons
take hold of your lives
and when will we learn
that it's hate that breeds hate
only love is the cure
don't leave it too late
get up, and feel it
the truth that won't wait
if we choose to do nothing
then we take all the blame

Finish with intro chords.

            
            
Suggest correction
Creating personal tab
Creating personal tab
You can edit any tab online and save it as your Personal.

You can edit, replace or remove any tab part or add personal notes – all changes will be seen only by you.

Personal tabs can be accessed anytime from any device, even offline.
Learn more »
comments
print report bad tab
5 comments total. Showing first comments.
0 reply
demandlivemusic 10 May 24, 2013 11:53 AM

these chords are incorrect. i am disappointed. it is very difficult, if not impossible to find the correct chords for this song anywhere. i am self taught, and do not know every chord, or every variation of every chord, but i have played the chords provided above, and they arent even close to being correct. this song has more of a walk down than a change of chords. if can, please correct this. thanks.

0 reply
gaveitawaythen 30 Dec 29, 2013 08:53 AM, edited at 01:54 pm

e--0--0--0--0--------------------------------------------------------
B--0--3--2--1--------------------------------------------------------
G--0--0--0--0--------------------------------------------------------
D--2--2--2--2--------------------------------------------------------
A--2--2--2--3--------------------------------------------------------
E--0--0--0--0--------------------------------------------------------

0 reply
Natural 10 Jun 07, 2014 06:28 PM

e--0--0--0--0--------------------------------------------------------
B--0--3--2--1--------------------------------------------------------
G--0--0--0--0--------------------------------------------------------
D--2--4--0--2--------------------------------------------------------
A--2--5--4--3--------------------------------------------------------
E--0--0--0--0--------------------------------------------------------

guest
You may want to rate the tab now too:
select rating
Wanna post a correction for this tab? Suggest correction