Oops, an error
Loading. Please wait.

The Rockafeller Skank tab

version 1
version 1

Whole song

8,704 views 3 this week
1 commentread comment
1 2 3 4 5
x 4
add to favorites
×
Save as Personal and add changes to this tab that will be seen only by you. Learn more ›
×
You can save this tab as Personal to edit and correct it or add notes. All changes will be seen only by you. Learn more »
launch autoscroll
font size
0
reset
how to read this tab
guitar tuner
edit
Autoscroll
slow
fast
+/-
esc
set tempo
stop
Fatboy Slim,rockafeller skank.
 Tabbed by PP,crushgroove2000@excite.com.
  
Artist: Fatboy Slim
Song: Rockafeller Skank
Tabed by PP

Repeat 3 times
E|-------------------------------------|
B|-------------------------------------|
G|-------------------------------------|
D|-------------------------------------|
A|--4h5-5-4h5-5-5-5-4h5-5-4h5-5-5-5----|
E|-------------------------------------|

Repeat 7 times
E|-------------------------------------|
B|-----8---8-----8----8----------------|
G|-------------------------------------|
D|--5---5-----5---5--------------------|
A|-------------------------------------|
E|-------------------------------------|

Right about now...
E|-------------------------------------|
B|------8----------6------8------------|
G|------7----------3------9------------|
D|------------------------10-----------|
A|-------------------------------------|
E|-------------------------------------|

Check it out now...
E|-------------------------------------|
B|--------8--------6------8------------|
G|--------7--------3------9------------|
D|------------------------10-----------|
A|-------------------------------------|
E|-------------------------------------|

E|-------------------------------------|
B|-----8------8----------8-10^---------|
G|--7-----7-7---7--9-9-9---------------|
D|-------------------------------------|
A|-------------------------------------|
E|-------------------------------------| 
:: Ultimate Guitar Archive :: 
http://www.ultimate-guitar.com 

 

            
            
Suggest correction
Creating personal tab
Creating personal tab
You can edit any tab online and save it as your Personal.

You can edit, replace or remove any tab part or add personal notes – all changes will be seen only by you.

Personal tabs can be accessed anytime from any device, even offline.
Learn more »
comments
print report bad tab
1 comment total.
+1 reply
Kyle Rex 30 Apr 29, 2010 10:45 PM

The first part you have is a bass guitar.

The second part I think goes 5 - 8 - 555 - 8 with some scratches and releasing of fret pressure. Not exactly sure though, something else might be going on.

Scratching and fret pressure release, listen to the song for the rhythm:

e|---------------------------------------|
B|-------8---8-----6-6---8--8------------|
G|-------7---7-----3-3---9--9------------|
D|----------------------10-10------------|
A|---------------------------------------|
E|---------------------------------------|

This guitar part will be in depending on what version you are listening to:

e|-------------------------------------|
B|-----8---------8-------------8-10----|
G|--5/7-----5/7-7---5/7--9-9-9---------|
D|-------------------------------------|
A|-------------------------------------|
E|-------------------------------------|

3:24-END

e|----------------------------------------|
B|------8--------8------8-----------------|
G|--5\7---5\7/5-7---5\7---5\7/5-3-0-------|
D|----------------------------------------|
A|----------------------------------------|
E|----------------------------------------|

To get that surferish twang don't pick the notes in middle and end of the slides, just pick the first note and slide really fast.

guest
Wanna post a correction for this tab? Suggest correction