Oops, an error
Loading. Please wait.

Weapon Of Choice bass

8,218 views 27 this week
1 commentread comment
1 2 3 4 5
x 3
add to favorites
×
Save as Personal and add changes to this tab that will be seen only by you. Learn more ›
×
You can save this tab as Personal to edit and correct it or add notes. All changes will be seen only by you. Learn more »
launch autoscroll
font size
0
reset
guitar tuner
edit
Autoscroll
slow
fast
+/-
esc
set tempo
stop
Author
Basically the whole song has the same pattern:

G --------------------
D --------------------
A ---2-4h64-----------
E -4------------------

"You could blow a this..."
1 part 2x and 2 part 2x then repeat
G -----------I --------
D -----------I --------
A ---4--2h44-I -6---4h6
E -----4-----I ---6----

Now comes the tricky part


G -----------------------------------------
D ------------------------4------6-4-------
A ------2222-4444-5555-5h6-6-4-------6-4---
E -4444------------------------7---------7-


Enjoy
Psalm 1:1-2



            
            
Suggest correction
Creating personal tab
Creating personal tab
You can edit any tab online and save it as your Personal.

You can edit, replace or remove any tab part or add personal notes – all changes will be seen only by you.

Personal tabs can be accessed anytime from any device, even offline.
Learn more »
Give kudos to tab author, rate the tab!
1 2 3 4 5
comments
print report bad tab
1 comment total.
0 reply
basti1508 10 Oct 14, 2013 11:33 AM

G -----------------------------------------------
D -----------------------4---------6-4-----------
A ------2222-4444-5555--6-6-4---------6-4--------
E -4444------------------------7-5--------7-4-3-4

guest
You may want to rate the tab now too:
select rating
Wanna post a correction for this tab? Suggest correction