Oops, an error
Loading. Please wait.

Agua Caliente tab

version 1
version 1

Whole song

by Fausto
41 views 1 this week
no commentswrite comment
1 2 3 4 5
3 more votes to show rating
add to favorites
×
Save as Personal and add changes to this tab that will be seen only by you. Learn more ›
×
You can save this tab as Personal to edit and correct it or add notes. All changes will be seen only by you. Learn more »
launch autoscroll
font size
0
reset
how to read this tab
guitar tuner
edit
Autoscroll
slow
fast
+/-
esc
set tempo
stop
Aquí he insertado el arpegio que entra al comienzo de la canción,
es muy simple :)

E:--------10-9------9------10-9-----|-------8-7-----7-----8-7----|--
B:-----10------10-----10--------10--|-----8-----8-----8-------8--|--
G:---9------------9------9---------9|---7---------7-----7-------7|--
D:----------------------------------|----------------------------|--
A:-0--------------------------------|-0--------------------------|--
e:----------------------------------|


E:--------6-5------5------6--5------|-------5-4-----4-----5-4----|--
B:-----6------6------6---------6----|-----5-----5-----5-------5--|--
G:---5------------5------5---------5|---4---------4-----4-------4|--
D:----------------------------------|----------------------------|--
A:-0--------------------------------|-0--------------------------|--
e:----------------------------------|----------------------------|--

E:----------------------------------|
B:---2-3-2-0------------------------|
G:-----------2-1-2------------------|
D:----------------------------------|
A:-0--------------------------------|
e:----------------------------------|


Luego de eso un remate rápido con las notas en cejilla: F G A
********************************************************************
ESTAS NOTAS ESTAN MUCHO MAS PARECIDAS A LAS ORIGINALES
 ESPERE LES GUSTEN Y VOTEN POR ELLA. GRACIAS

*-Desde aquí la canción va con arpegios o balada lenta-*

     A               G#
No Puedo negar aunque quiera,
               F#m
que un día fui tuyo
  D               E
instantes felices no dejo
                  A
que el tiempo destruya
    C#7
No puedo alejarme de ti
                F#m
ni tampoco lo intento
  D
haré de este día en mi vida
            E
un eterno momento

  A                G#
Ahora eres parte de mi
                 F#m
y de mi corta historia,
   D               E
tu tierna manera de amar
              A
ya la sé de memoria,
C#7
está bien grabada en mi mente
                 F#m
y en mi cuerpo entero
  D                 E
y sabes que aún no te digo
                 A      A7
que yo puedo y quiero.

*-Desde aquí va en balada mas rápida-*

  D               E
Quiero al beber tu veneno
                A            A7
embriagarme de suerte
  D                 E
quiero al momento de amarte
                A    A7
acercarme a la muerte
  D                 E
Quiero entre sábanas blancas
          A      C#7 F#m
hacerte volar  suavemente

*-Desde aqui suave y termina con un lick-*
  D                  E
quiero correr por tu cuerpo
            A
como agua caliente.

E:----------------------------------|----------------------------|--
B:---2-3-2-0------------------------|----------------------------|--
G:-----------2-1-2------------------|----------------------------|--
D:----------------------------------|----------------------------|--
A:-0--------------------------------|----------------------------|--
e:----------------------------------|----------------------------|--

Luego de eso un remate rápido con las notas en cejilla: F G A
*-Desde aquí la canción va con arpegios o balada lenta-*

 A               G#
Ahora ya sé tus deseos
                 F#m
tus miedos, tus sueños
 D               E
Ahora conozco también
                A
tus defectos pequeños
 C#7
estás bien guardada en mi mente
                 F#m
y en mi cuerpo entero
   D                E
y sabes que aún no te digo
                 A     A7
que yo a ti te quiero

*-Desde aquí va en balada mas rapida-*


  D                E
Quiero al beber tu veneno
                A        A7
embriagarme de suerte
  D                 E
quiero al momento de amarte
                A        A7
acercarme a la muerte
  D                    E
Quiero entre sábanas blancas
          A      C#7  F#m
hacerte volar  suavemente
*-Desde aqui suave y termina con un lick-*
  D                  E
quiero correr por tu cuerpo
            A
como agua caliente.

E:----------------------------------|
B:---2-3-2-0------------------------|
G:-----------2-1-2------------------|
D:----------------------------------|
A:-0--------------------------------|
e:----------------------------------|

Luego de eso un remate rápido con las notas en cejilla: F G A


FIN

            
            
Suggest correction
Creating personal tab
Creating personal tab
You can edit any tab online and save it as your Personal.

You can edit, replace or remove any tab part or add personal notes – all changes will be seen only by you.

Personal tabs can be accessed anytime from any device, even offline.
Learn more »
Give kudos to tab author, rate the tab!
1 2 3 4 5
comments
print report bad tab
guest
Wanna post a correction for this tab? Suggest correction