Oops, an error
Loading. Please wait.

Tu Vida O Tu Muerte tab

version 2
version 2

Whole song

20 views 1 this week
no commentswrite comment
1 2 3 4 5
3 more votes to show rating
add to favorites
×
Save as Personal and add changes to this tab that will be seen only by you. Learn more ›
×
You can save this tab as Personal to edit and correct it or add notes. All changes will be seen only by you. Learn more »
launch autoscroll
font size
0
reset
how to read this tab
guitar tuner
edit
Autoscroll
slow
fast
+/-
esc
set tempo
stop
Intro
-----
A A EsA A EsA A EsA A

A C# F# E  D D  E

Estrofa
-------
A            C#            F#              E          A C# F# D
Me entere de una noticia k me hizo rabiar del asko
A            C#            D               D#         A C# D D#
era la historia de un reo kondenado a la pena kapital
A            C#            F#              E          A C# F# D
Unos dias antes de k terminara su agonia
A            C#            F#              E          A C# F# D
decidio el mismo k habia k poner punto y final

D         E6          D           E6        A
Y lo intento , pero a suerte no estaba kon el...

Lick 1:
------
    A       C#      F#     E        D D E
E|----------------------------------------|
B|--------------5-------------------------|
G|------6---6-6---6-----2-------1---7-7-1-|
D|--7-7---7---------4-4---4-2-2---2-7-7-2-|
A|----------------------------------------|
E|----------------------------------------|

Estribillo:
----------
D          E6         D    E6  A
Y es el poder el k ejecuta vilmente
D          E6        D                              E6
y es el poder el k decide sobre tu vida o tu muerte    Muerte!

A A EsA A EsA A EsA A

Solo:
-----
    A       C#      F#    E   D D     E
E|--------------------------------------|
B|------------------------5-5---5-------|
G|------------------4-6-7-----7---7-6-4-|
D|------------4-6-7---------------------|
A|------4-5-7---------------------------|
E|--5-7---------------------------------|
 A         C#    F#  E   D D  E
|-5-5-5-4---4-5-4---5-4-----------|
|---------7-------5-----5---------|
|-------------------------7-7-9b9-|
|---------------------------------|
|---------------------------------|
1---------------------------------|

            
            
Suggest correction
Creating personal tab
Creating personal tab
You can edit any tab online and save it as your Personal.

You can edit, replace or remove any tab part or add personal notes – all changes will be seen only by you.

Personal tabs can be accessed anytime from any device, even offline.
Learn more »
Give kudos to tab author, rate the tab!
1 2 3 4 5
comments
print report bad tab
guest
Wanna post a correction for this tab? Suggest correction