Oops, an error
Loading. Please wait.
We have an official Self Bias Resistor tab made by UG professional guitarists. Check out the tab »
×
1,459 views 3 this week
3 commentsread comments
1 2 3 4 5
x 5
add to favorites
×
Save as Personal and add changes to this tab that will be seen only by you. Learn more ›
×
You can save this tab as Personal to edit and correct it or add notes. All changes will be seen only by you. Learn more »
launch autoscroll
font size
0
reset
how to read this tab
guitar tuner
edit
Autoscroll
slow
fast
+/-
esc
set tempo
stop
song:
band:fear factory
album: demanufacture, 1995
tuning:DROP C!!!!

first off i wood just like to say thati think that DINO did not use a seven string in
this album, and that he used a ESP six string, in DROP C tuning SO therfore this song,
and the rest of the songs on this album is in drop c or other wise...but i certainly
dont think he used a seven string.
if you dont believe me, dowload the replica vid, or the self bias resistor vid (which
is live BTW)which further adds my point that he did in fact use a 6 STRING!! so
therefore, the rest of the tabs of this song..and all the other songs on this album
that are on this site...are indeed WRONG!


listen to the song for rythym patterns...ill give you the chords for the song...but to
tab out the rythym patterns for this song would take all day...FEAR FACTORY have alot
of complex rythym patterns to their songs!!Lmao

*=palm mute
h=hammer on

intro (played X2)
e|--------------------------------------------------------------------------|
B|--------------------------------------------------------------------------|
G|--------------------------------------------------------------------------|
D|-3------------------------------------------------------------------------|
A|-3--33-333333-------------------------------------------------------------|
E|-3--33-333333---33--33333--33--33333-3-33333--3--33333--------------------|
      ****************************************************


"HEY YOU!! WAKE UP!!!..."
verse played x4            (note: on third time in 1st first verse, play...)
e|--------------------------------------------------------------------------|
B|-----------------------------------------(-------------)------------------|
G|-----------------------------------------(-------------)------------------|
D|-----------------------------------------(-------------)------------------|
A|--22222--222-22--------------------------(-------------)------------------|
E|--22222--222-22--------------------------(-33-333333-33)------------------|
    *****  *** **                            ************


after 1st verse play this short pattern
" A CANCER!!THAT GROWS OVER TIME!!"
e|--------------------------------------------------------------------------|
B|--------------------------------------------------------------------------|
G|--------------------------------------------------------------------------|
D|--------------------------------------------------------------------------|
A|-33333--33-33--33333-33-33--33333-33-33-3-33-33-3--33-33-333333333--------|
E|-33333--33-33--33333-33-33--33333-33-33-3-33-33-3--33-33-333333333--------|
**********************************************************************

repeat verse!!!!

then stop!!!!!
"MACHINES OF HATE!!!!!!!!"


chorus repeat x4
"ALL THESE YEARS THEY TRIED TO BREAK YOU TO YOU KNEES...."
e|---------------------------------------------------------------------------|
B|---------------------------------------------------------------------------|
G|---------------------------------------------------------------------------|
D|-7--7--7-7--7--7--7-7--5--5--5-5-5--5--------------------------------------|
A|-5--5--5-5--7--7--7-7--3--3--3-3-5--5--------------------------------------|
E|-0--0--0-0--7--7--7-7------------5--5--5555-3333---------------------------|

then....
e|--------------------------------------------------------------------------|
B|--------------------------------------------------------------------------|
G|--------------------------------------------------------------------------|
D|--------------------------------------------------------------------------|
A|-33333--33-33--33333-33-33--33333-33-33-3-33-33-3--33-33-333333333--------|
E|-33333--33-33--33333-33-33--33333-33-33-3-33-33-3--33-33-333333333--------|
**********************************************************************

"HHUUURRRGGGHH!!!!!!!!"


e|--------------------------------------------------------------------------|
B|--------------------------------------------------------------------------|
G|--------------------------------------------------------------------------|
D|--------------------------------------------------------------------------|
A|-33333--33-33--33333-33-33--33333-33-33-3-33-33-3--33-33-333333333--------|
E|-33333--33-33--33333-33-33--33333-33-33-3-33-33-3--33-33-333333333--------|
**********************************************************************

repeat verse,
then chorus,
then after second chorus
comes a breakdown.......

third and fourth time add in palm mutes where needed..(see song for rythym patterns)this 
aint hard at all..(neither is the whole song but hey!!! lmao)
e|---------------------------------------------------------------------------|
B|---------------------------------------------------------------------------|
G|---------------------------------------------------------------------------|
D|-0---5--3-0-----5h6-6------------------------------------------------------|
A|-0---5--3-0-----5h6-6------------------------------------------------------|
E|-0---5--3-0--00-5h6-6------------------------------------------------------|

INTERLUDE
"hypocrisy!!!!!"
"YOU cant believe!!"
"machines!!!! of hate!!!!......"

repeat this 8 times
e|---------------------------------------------------------------------------|
B|---------------------------------------------------------------------------|
G|---------------------------------------------------------------------------|
D|---------------------------------------------------------------------------|
A|--------------------------------8------------------------------------------|
E|-2222202--222202-2202-222200----8------------------------------------------|
********************************

then...
e|---------------------------------------------------------------------------|
B|---------------------------------------------------------------------------|
G|---------------------------------------------------------------------------|
D|----------------------6-6---------------------------5-5--------------------|
A|----------------------6-6---------------------------5-5--------------------|
E|--6650-6-5-0-665-6-5-06-6-6650-6-5-0--6650-6-5-0-5-5-----------------------|
************************    **************************


then repeat
this again
e|--------------------------------------------------------------------------|
B|--------------------------------------------------------------------------|
G|--------------------------------------------------------------------------|
D|--------------------------------------------------------------------------|
A|-33333--33-33--33333-33-33--33333-33-33-3-33-33-3--33-33-333333333--------|
E|-33333--33-33--33333-33-33--33333-33-33-3-33-33-3--33-33-333333333--------|
**********************************************************************
then chorus
then outro is....again it switches near the end, so listen to song for rythym patterns
e|---------------------------------------------------------------------------|
B|---------------------------------------------------------------------------|
G|---------------------------------------------------------------------------|
D|-0---5--3-0-----5h6-6------------------------------------------------------|
A|-0---5--3-0-----5h6-6------------------------------------------------------|
E|-0---5--3-0--00-5h6-6------------------------------------------------------|


thats bout it!
my address is cowenslp2004@hotmail.com
....contact me if ya wanna correct me or criticise me on the tab....tis my second tab tho hehehe lol...
.....Or if ya just wanna chat by all means..there is my addy
so get learnin and enjoy!
tabbed by CHRIS OWENS !

            
            
Suggest correction
Creating personal tab
Creating personal tab
You can edit any tab online and save it as your Personal.

You can edit, replace or remove any tab part or add personal notes – all changes will be seen only by you.

Personal tabs can be accessed anytime from any device, even offline.
Learn more »
comments
print report bad tab
3 comments total.
+1 reply
PooJee 20 Feb 08, 2008 10:24 AM

Yes, the song was recorded with a six-string... in B Standard tuning.. B,E,A,D,F#,E, which can also be played very easily on a standard tuned 7-string.

+1 reply
PelzR 3,675 Feb 12, 2012 07:29 AM

It's no secret that Dino used a six-string guitar on Demanufacture. As PooJee said it is in B Standard not Drop C.

I don't recommend this tab. Specially if you play the chorus like in this tab, you will notice that something is wrong.

0 reply
skull_king 110 Feb 24, 2016 04:08 AM

The tuning is very incorrect. Throwing the entire tablature way off and not worth learning. The song is in B standard and NOT Drop C

guest
Wanna post a correction for this tab? Suggest correction