Oops, an error
Loading. Please wait.

Supernova tab

version 1
version 1

Whole song

Interactive

505 views 1 this week
no commentswrite comment
1 2 3 4 5
1 last vote to show rating
add to favorites
×
Save as Personal and add changes to this tab that will be seen only by you. Learn more ›
×
You can save this tab as Personal to edit and correct it or add notes. All changes will be seen only by you. Learn more »
launch autoscroll
font size
0
reset
how to read this tab
guitar tuner
edit
Autoscroll
slow
fast
+/-
esc
set tempo
stop
Author
Difficulty
                               Supernova                                     


                                                                    Fear Factory
Guitar



     Q    E  Q    E  Q       Q    E  Q    E  Q       Q    E  Q    E  Q     
E||----------0----0-------|----------0----0-------|---------------0-------|
B||----------0-------0----|----------0-------0----|----------0-------0----|
G||-----------------------|-----------------------|----------0------------|
D||--9----9----------L----|--7----7----------L----|--4----4----------L----|
A||-----------------------|-----------------------|-----------------------|
E||-----------------------|-----------------------|-----------------------|


  Q    E  Q    E  Q       Q    E  Q    E  Q       Q    E  Q    E  Q     
---------------0-------|----------0----0-------|----------0----0-------|
----------0-------0----|----------0-------0----|----------0-------0----|
----------0------------|-----------------------|-----------------------|
--5----5----------L----|--9----9----------L----|--7----7----------L----|
-----------------------|-----------------------|-----------------------|
-----------------------|-----------------------|-----------------------|


  Q    E  Q    E  Q       Q    E  Q    Q    E     Q    E  Q    E  Q     
---------------0-------|-----------------------|----------0----0--L----|
----------0-------0----|----------0----L-------|----------0----L--0----|
----------0------------|----------0----L-------|-----------------------|
--4----4----------L----|--2----L---------------|-----------------------|
-----------------------|-----------------------|--9----9----------L----|
-----------------------|-----------------------|--7----7----------L----|


  Q    E  Q    E  Q       Q    E  Q    E  Q       Q    E  Q    E  Q     
----------0----0--L----|---------------0--L----|---------------0-------|
----------0----L--0----|----------0----L--0----|----------0----L--0----|
-----------------------|----------0-------L----|----------0-------L----|
-----------------------|-----------------------|-----------------------|
--7----7----------L----|--4----4----------L----|--5----5----------L----|
--5----5----------L----|--2----2----------L----|--3----3----------L----|


  Q    E  Q    E  Q       Q    E  Q    E  Q       Q    E  Q    E  Q     
----------0----0--L----|----------0----0--L----|---------------0--L----|
----------0----L--0----|----------0----L--0----|----------0----L--0----|
-----------------------|-----------------------|----------0-------L----|
-----------------------|-----------------------|-----------------------|
--9----9----------L----|--7----7----------L----|--4----4----------L----|
--7----7----------L----|--5----5----------L----|--2----2----------L----|


  Q    E  E  E   Q     E     Q    E  Q    E  E  E     Q    E  Q    E  E  E   
-------0--5--0--10-----L--|---------------0--------|---------------0--------|
--------------------------|----------0-------0--L--|----------0-------0--L--|
--------------------------|------------------------|------------------------|
--------------------------|------------------------|------------------------|
--2--------------------L--|--9----9----------------|--7----7----------------|
--0--------------------L--|--7----7-------------L--|--5----5-------------L--|


  Q    E  Q    E  E  E     Q    E  Q    E  E  E     Q    E  Q    E  E  E   
---------------0--------|---------------0--------|---------------0--------|
----------0-------0--L--|----------0-------0--L--|----------0-------0--L--|
------------------------|------------------------|------------------------|
------------------------|------------------------|------------------------|
--4----4----------------|--5----5----------------|--9----9----------------|
--2----2-------------L--|--3----3-------------L--|--7----7-------------L--|


  Q    E  Q    E  E  E     Q    E  Q    E  E  E     W                 
---------------0--------|---------------0--------|-------------------|
----------0-------0--L--|----------0-------0--L--|-------------------|
------------------------|------------------------|-------------------|
------------------------|------------------------|-------------------|
--7----7----------------|--4----4----------------|--2----------------|
--5----5-------------L--|--2----2-------------L--|--0----------------|


  W                   W                                                     
-------------------|-------------------|-----|-----|-----|-----|-----|-----|
-------------------|-------------------|-----|-----|-----|-----|-----|-----|
-------------------|-------------------|-----|-----|-----|-----|-----|-----|
--5----------------|--L----------------|-----|-----|-----|-----|-----|-----|
--5----------------|--L----------------|-----|-----|-----|-----|-----|-----|
--3----------------|--L----------------|-----|-----|-----|-----|-----|-----|


                                                  Q    E  Q    E  Q     
-----|-----|-----|-----|-----|-----|-----|-----|----------0----0--L----|
-----|-----|-----|-----|-----|-----|-----|-----|----------0----L--0----|
-----|-----|-----|-----|-----|-----|-----|-----|-----------------------|
-----|-----|-----|-----|-----|-----|-----|-----|-----------------------|
-----|-----|-----|-----|-----|-----|-----|-----|--9----9----------L----|
-----|-----|-----|-----|-----|-----|-----|-----|--7----7----------L----|


  Q    E  Q    E  Q       Q    E  Q    E  Q       Q    E  Q    E  Q     
----------0----0--L----|---------------0--L----|---------------0-------|
----------0----L--0----|----------0----L--0----|----------0----L--0----|
-----------------------|----------0-------L----|----------0-------L----|
-----------------------|-----------------------|-----------------------|
--7----7----------L----|--4----4----------L----|--5----5----------L----|
--5----5----------L----|--2----2----------L----|--3----3----------L----|


  Q    E  Q    E  Q       Q    E  Q    E  Q       Q    E  Q    E  Q     
----------0----0--L----|----------0----0--L----|---------------0--L----|
----------0----L--0----|----------0----L--0----|----------0----L--0----|
-----------------------|-----------------------|----------0-------L----|
-----------------------|-----------------------|-----------------------|
--9----9----------L----|--7----7----------L----|--4----4----------L----|
--7----7----------L----|--5----5----------L----|--2----2----------L----|


  Q    E  E  E   Q     E     Q    E  Q    E  E  E     Q    E  Q    E  E  E   
-------0--5--0--10-----L--|---------------0--------|---------------0--------|
--------------------------|----------0-------0--L--|----------0-------0--L--|
--------------------------|------------------------|------------------------|
--------------------------|------------------------|------------------------|
--2--------------------L--|--9----9----------------|--7----7----------------|
--0--------------------L--|--7----7-------------L--|--5----5-------------L--|


  Q    E  Q    E  E  E     Q    E  Q    E  E  E     Q    E  Q    E  E  E   
---------------0--------|---------------0--------|---------------0--------|
----------0-------0--L--|----------0-------0--L--|----------0-------0--L--|
------------------------|------------------------|------------------------|
------------------------|------------------------|------------------------|
--4----4----------------|--5----5----------------|--9----9----------------|
--2----2-------------L--|--3----3-------------L--|--7----7-------------L--|


  Q    E  Q    E  E  E     Q    E  Q    E  E  E     E  E  E  E  E  E  E  E   
---------------0--------|---------------0--------|--------------------------|
----------0-------0--L--|----------0-------0--L--|--------------------------|
------------------------|------------------------|--------------------------|
------------------------|------------------------|--------------------------|
--7----7----------------|--4----4----------------|--2--L--2--2--2--3--3--3--|
--5----5-------------L--|--2----2-------------L--|--0--L--0--0--0--1--1--1--|


  E  E  E  E  E  E  E  E     E  E  E  E  E  E  E  E   
--------------------------|--------------------------|
--------------------------|--------------------------|
--------------------------|--------------------------|
--------------------------|--------------------------|
--5--L--5--5--5--7--7--7--|--2--L--2--2--2--3--3--3--|
--3--L--3--3--3--5--5--5--|--0--L--0--0--0--1--1--1--|


  E  E  E  E  E  E  E  E     W                   W                             
--------------------------|-------------------|-------------------|-----|-----|
--------------------------|-------------------|-------------------|-----|-----|
--------------------------|-------------------|-------------------|-----|-----|
--------------------------|--5----------------|--L----------------|-----|-----|
--5--L--5--5--5--7--7--7--|--5----------------|--L----------------|-----|-----|
--3--L--3--3--3--5--5--5--|--3----------------|--L----------------|-----|-----|


-----|-----|-----|-----|-----|-----|-----|-----|-----|-----|-----|-----|
-----|-----|-----|-----|-----|-----|-----|-----|-----|-----|-----|-----|
-----|-----|-----|-----|-----|-----|-----|-----|-----|-----|-----|-----|
-----|-----|-----|-----|-----|-----|-----|-----|-----|-----|-----|-----|
-----|-----|-----|-----|-----|-----|-----|-----|-----|-----|-----|-----|
-----|-----|-----|-----|-----|-----|-----|-----|-----|-----|-----|-----|


  Q    E  Q    E  Q       Q    E  Q    E  Q       Q    E  Q    E  Q     
----------0----0--L----|----------0----0--L----|---------------0--L----|
----------0----L--0----|----------0----L--0----|----------0----L--0----|
-----------------------|-----------------------|----------0-------L----|
-----------------------|-----------------------|-----------------------|
--9----9----------L----|--7----7----------L----|--4----4----------L----|
--7----7----------L----|--5----5----------L----|--2----2----------L----|


  Q    E  Q    E  Q       Q    E  Q    E  Q       Q    E  Q    E  Q     
---------------0-------|----------0----0--L----|----------0----0--L----|
----------0----L--0----|----------0----L--0----|----------0----L--0----|
----------0-------L----|-----------------------|-----------------------|
-----------------------|-----------------------|-----------------------|
--5----5----------L----|--9----9----------L----|--7----7----------L----|
--3----3----------L----|--7----7----------L----|--5----5----------L----|


  Q    E  Q    E  Q       Q    E  E  E   Q     E     Q    E  Q    E  E  E   
---------------0--L----|-------0--5--0--10-----L--|---------------0--------|
----------0----L--0----|--------------------------|----------0-------0--L--|
----------0-------L----|--------------------------|------------------------|
-----------------------|--------------------------|------------------------|
--4----4----------L----|--2--------------------L--|--9----9----------------|
--2----2----------L----|--0--------------------L--|--7----7-------------L--|


  Q    E  Q    E  E  E     Q    E  Q    E  E  E     Q    E  Q    E  E  E   
---------------0--------|---------------0--------|---------------0--------|
----------0-------0--L--|----------0-------0--L--|----------0-------0--L--|
------------------------|------------------------|------------------------|
------------------------|------------------------|------------------------|
--7----7----------------|--4----4----------------|--5----5----------------|
--5----5-------------L--|--2----2-------------L--|--3----3-------------L--|


  Q    E  Q    E  E  E     Q    E  Q    E  E  E     Q    E  Q    E  E  E   
---------------0--------|---------------0--------|---------------0--------|
----------0-------0--L--|----------0-------0--L--|----------0-------0--L--|
------------------------|------------------------|------------------------|
------------------------|------------------------|------------------------|
--9----9----------------|--7----7----------------|--4----4----------------|
--7----7-------------L--|--5----5-------------L--|--2----2-------------L--|


  E  E  E  E  E  E  E  E     E  E  E  E  E  E  E  E   
--------------------------|--------------------------|
--------------------------|--------------------------|
--------------------------|--------------------------|
--------------------------|--------------------------|
--2--L--2--2--2--4--4--4--|--3--L--3--3--3--5--4--L--|
--0--L--0--0--0--2--2--2--|--3--L--3--3--3--3--2--L--|


  E  E  E  E  E  E  E  E     E  E  E  E  E  E  E  E   
--------------------------|--------------------------|
--------------------------|--------------------------|
--------------------------|--------------------------|
--------------------------|--------------------------|
--2--L--2--2--2--4--4--4--|--3--L--3--3--3--5--4--L--|
--0--L--0--0--0--2--2--2--|--3--L--3--3--3--3--2--L--|


  E  E  E  E  E  E  E  E     E  E  E  E  E  E  E  E   
--------------------------|--------------------------|
--------------------------|--------------------------|
--------------------------|--------------------------|
--------------------------|--------------------------|
--2--L--2--2--2--4--4--4--|--3--L--3--3--3--5--4--L--|
--0--L--0--0--0--2--2--2--|--3--L--3--3--3--3--2--L--|


  E  E  E  E  E  E  E  E     E  E  E  E  E  E  E  E   
--------------------------|--------------------------|
--------------------------|--------------------------|
--------------------------|--------------------------|
--------------------------|--------------------------|
--2--L--2--2--2--4--4--4--|--3--L--3--3--3--3--3--3--|
--0--L--0--0--0--2--2--2--|--3--L--3--3--3--3--3--3--|


  E  E  E  E  E  E  E  E     E  E  E  E  E  E  E  E     E  E  E  E  E  E  Q     
--------------------------|--------------------------|-------------------------|
--------------------------|--------------------------|-------------------------|
--------------------------|--------------------------|-------------------------|
--------------------------|--------------------------|-------------------------|
--5--L--5--5--3--5--5--5--|--3--L--3--3--3--3--3--3--|--3--3--3--3--3--3-------|
--5--L--5--5--5--5--5--5--|--1--L--1--1--1--1--1--1--|--1--1--1--1--1--1-------|


  E  E  E  E  E  E  E  E     E  E  E  E  E  E  E  E   
--------------------------|--------------------------|
--------------------------|--------------------------|
--------------------------|--------------------------|
--------------------------|--------------------------|
--5--L--5--5--5--5--5--5--|--5--5--5--5--5--7--7--7--|
--3--L--3--3--3--3--3--3--|--3--3--3--3--3--5--5--5--|


  E  E  E  E  E  E  E  E     E  E  E  E  E  E  E  E   
--------------------------|--------------------------|
--------------------------|--------------------------|
--------------------------|--------------------------|
--------------------------|--------------------------|
--2--L--2--2--2--2--2--2--|--2--2--2--2--2--3--3--3--|
--0--L--0--0--0--0--0--0--|--0--0--0--0--0--1--1--1--|


  E  E  E  E  E  E  E  E     E  E  E  E  E  E  E  E   
--------------------------|--------------------------|
--------------------------|--------------------------|
--------------------------|--------------------------|
--------------------------|--------------------------|
--5--L--5--5--5--5--5--5--|--5--5--5--5--5--7--7--7--|
--3--L--3--3--3--3--3--3--|--3--3--3--3--3--5--5--5--|


  E  E  E  E  E  E  E  E     E  E  E  E  E  E  E  E   
--------------------------|--------------------------|
--------------------------|--------------------------|
--------------------------|--------------------------|
--------------------------|--------------------------|
--2--L--2--2--2--2--2--2--|--2--2--2--2--2--3--3--3--|
--0--L--0--0--0--0--0--0--|--0--0--0--0--0--1--1--1--|


  E  E  E  E  E  E  E  E     E  E  E  E  E  E  E  E   
--------------------------|--------------------------|
--------------------------|--------------------------|
--------------------------|--------------------------|
--------------------------|--------------------------|
--5--L--5--5--5--5--5--5--|--5--5--5--5--5--7--7--7--|
--3--L--3--3--3--3--3--3--|--3--3--3--3--3--5--5--5--|


  E  E  E  E  E  E  E  E     E  E  E  E  E  E  E  E   
--------------------------|--------------------------|
--------------------------|--------------------------|
--------------------------|--------------------------|
--------------------------|--------------------------|
--2--L--2--2--2--2--2--2--|--2--2--2--2--2--3--3--3--|
--0--L--0--0--0--0--0--0--|--0--0--0--0--0--1--1--1--|


  E  E  E  E  E  E  E  E     E  E  E  E  E  E  E  E   
--------------------------|--------------------------|
--------------------------|--------------------------|
--------------------------|--------------------------|
--------------------------|--------------------------|
--5--L--5--5--5--5--5--5--|--5--5--5--5--5--7--7--7--|
--3--L--3--3--3--3--3--3--|--3--3--3--3--3--5--5--5--|


  E  E  E  E  E  E  E  E     E  E  E  E  E  E  E  E   
--------------------------|--------------------------|
--------------------------|--------------------------|
--------------------------|--------------------------|
--------------------------|--------------------------|
--2--L--2--2--2--2--2--2--|--2--2--2--2--2--3--3--3--|
--0--L--0--0--0--0--0--0--|--0--0--0--0--0--1--1--1--|


  E  E  E  E  E  E  E  E     E  E  Q    H           Q    E  Q    E  Q     
--------------------------|----------------------|----------0----0--L----|
--------------------------|----------------------|----------0----L--0----|
--------------------------|----------------------|-----------------------|
--------------------------|----------------------|-----------------------|
--2--L--2--2--2--2--2--2--|--2--2----------------|--9----9----------L----|
--0--L--0--0--0--0--0--0--|--0--0----------------|--7----7----------L----|


  Q    E  Q    E  Q       Q    E  Q    E  Q       Q    E  Q    E  Q     
----------0----0--L----|---------------0--L----|---------------0-------|
----------0----L--0----|----------0----L--0----|----------0----L--0----|
-----------------------|----------0-------L----|----------0-------L----|
-----------------------|-----------------------|-----------------------|
--7----7----------L----|--4----4----------L----|--5----5----------L----|
--5----5----------L----|--2----2----------L----|--3----3----------L----|


  Q    E  Q    E  Q       Q    E  Q    E  Q       Q    E  Q    E  Q     
----------0----0--L----|----------0----0--L----|---------------0--L----|
----------0----L--0----|----------0----L--0----|----------0----L--0----|
-----------------------|-----------------------|----------0-------L----|
-----------------------|-----------------------|-----------------------|
--9----9----------L----|--7----7----------L----|--4----4----------L----|
--7----7----------L----|--5----5----------L----|--2----2----------L----|


  Q    E  E  E   Q     E     Q    E  Q    E  E  E     Q    E  Q    E  E  E   
-------0--5--0--10-----L--|---------------0--------|---------------0--------|
--------------------------|----------0-------0--L--|----------0-------0--L--|
--------------------------|------------------------|------------------------|
--------------------------|------------------------|------------------------|
--2--------------------L--|--9----9----------------|--7----7----------------|
--0--------------------L--|--7----7-------------L--|--5----5-------------L--|


  Q    E  Q    E  E  E     Q    E  Q    E  E  E     Q    E  Q    E  E  E   
---------------0--------|---------------0--------|---------------0--------|
----------0-------0--L--|----------0-------0--L--|----------0-------0--L--|
------------------------|------------------------|------------------------|
------------------------|------------------------|------------------------|
--4----4----------------|--5----5----------------|--9----9----------------|
--2----2-------------L--|--3----3-------------L--|--7----7-------------L--|


                                                    PM PM PM PM PM PM PM PM  
  Q    E  Q    E  E  E     Q    E  Q    E  E  E     E  E  E  E  E  E  E  E   
---------------0--------|---------------0--------|--------------------------|
----------0-------0--L--|----------0-------0--L--|--------------------------|
------------------------|------------------------|--------------------------|
------------------------|------------------------|--------------------------|
--7----7----------------|--4----4----------------|--2--2--2--2--3--3--3--3--|
--5----5-------------L--|--2----2-------------L--|--0--0--0--0--1--1--1--1--|


  Q    E  Q    E  Q       Q    E  Q    E  Q       Q    E  Q    E  Q     
----------0----0--L----|----------0----0--L----|---------------0--L----|
----------0----L--0----|----------0----L--0----|----------0----L--0----|
-----------------------|-----------------------|----------0-------L----|
-----------------------|-----------------------|-----------------------|
--9----9----------L----|--7----7----------L----|--4----4----------L----|
--7----7----------L----|--5----5----------L----|--2----2----------L----|


  Q    E  Q    E  Q       Q    E  Q    E  Q       Q    E  Q    E  Q     
---------------0-------|----------0----0--L----|----------0----0--L----|
----------0----L--0----|----------0----L--0----|----------0----L--0----|
----------0-------L----|-----------------------|-----------------------|
-----------------------|-----------------------|-----------------------|
--5----5----------L----|--9----9----------L----|--7----7----------L----|
--3----3----------L----|--7----7----------L----|--5----5----------L----|


  Q    E  Q    E  Q       Q    E  E  E   Q     E     Q    E  Q    E  E  E   
---------------0--L----|-------0--5--0--10-----L--|---------------0--------|
----------0----L--0----|--------------------------|----------0-------0--L--|
----------0-------L----|--------------------------|------------------------|
-----------------------|--------------------------|------------------------|
--4----4----------L----|--2--------------------L--|--9----9----------------|
--2----2----------L----|--0--------------------L--|--7----7-------------L--|


  Q    E  Q    E  E  E     Q    E  Q    E  E  E     Q    E  Q    E  E  E   
---------------0--------|---------------0--------|---------------0--------|
----------0-------0--L--|----------0-------0--L--|----------0-------0--L--|
------------------------|------------------------|------------------------|
------------------------|------------------------|------------------------|
--7----7----------------|--4----4----------------|--5----5----------------|
--5----5-------------L--|--2----2-------------L--|--3----3-------------L--|


  Q    E  Q    E  E  E     Q    E  Q    E  E  E     Q    E  Q    E  E  E   
---------------0--------|---------------0--------|---------------0--------|
----------0-------0--L--|----------0-------0--L--|----------0-------0--L--|
------------------------|------------------------|------------------------|
------------------------|------------------------|------------------------|
--9----9----------------|--7----7----------------|--4----4----------------|
--7----7-------------L--|--5----5-------------L--|--2----2-------------L--|


  E  E  E  E  E  E  E  E     E  E  E  E  E  E  E  E   
--------------------------|--------------------------|
--------------------------|--------------------------|
--------------------------|--------------------------|
--------------------------|--------------------------|
--2--L--2--2--2--3--3--3--|--5--L--5--5--5--7--7--7--|
--0--L--0--0--0--1--1--1--|--3--L--3--3--3--5--5--5--|


  E  E  E  E  E  E  E  E     E  E  E  E  E  E  E  E   
--------------------------|--------------------------|
--------------------------|--------------------------|
--------------------------|--------------------------|
--------------------------|--------------------------|
--2--L--2--2--2--3--3--3--|--5--L--5--5--5--7--7--7--|
--0--L--0--0--0--1--1--1--|--3--L--3--3--3--5--5--5--|


  E  E  E  E  E  E  E  E     E  E  E  E  E  E  E  E   
--------------------------|--------------------------|
--------------------------|--------------------------|
--------------------------|--------------------------|
--------------------------|--------------------------|
--2--L--2--2--2--3--3--3--|--5--L--5--5--5--7--7--7--|
--0--L--0--0--0--1--1--1--|--3--L--3--3--3--5--5--5--|


  E  E  E  E  E  E  E  E     E  E  E  E  E  E  E  E     W                 
--------------------------|--------------------------|-------------------|
--------------------------|--------------------------|-------------------|
--------------------------|--------------------------|-------------------|
--------------------------|--------------------------|-------------------|
--2--L--2--2--2--3--3--3--|--5--L--5--5--5--7--7--7--|--2----------------|
--0--L--0--0--0--1--1--1--|--3--L--3--3--3--5--5--5--|--0----------------|


  W                  
-------------------||
-------------------||
-------------------||
-------------------||
--L----------------||
--L----------------||

            
            
Suggest correction
Creating personal tab
Creating personal tab
You can edit any tab online and save it as your Personal.

You can edit, replace or remove any tab part or add personal notes – all changes will be seen only by you.

Personal tabs can be accessed anytime from any device, even offline.
Learn more »
Give kudos to tab author, rate the tab!
1 2 3 4 5
comments
print report bad tab
guest
You may want to rate the tab now too:
select rating
Wanna post a correction for this tab? Suggest correction