Oops, an error
Loading. Please wait.

Could We Burn Darling bass

194 views 1 this week
no commentswrite comment
1 2 3 4 5
1 last vote to show rating
add to favorites
×
Save as Personal and add changes to this tab that will be seen only by you. Learn more ›
×
You can save this tab as Personal to edit and correct it or add notes. All changes will be seen only by you. Learn more »
launch autoscroll
font size
0
reset
guitar tuner
edit
Autoscroll
slow
fast
+/-
esc
set tempo
stop
Author
Difficulty
G|-----------------------------------------------------------10h12p10-r---10-8-10----|
D|--------------10-r-8-------------7---8-7-------------------------------------------|
A|---------------------8-8-----------------5--------------------------------------10-|
E|-/8-5-5-6---6------------8-r-6-r---------------------------------------------------|
    3 + 4 + 1 + 2 +  3 + 4 + 1 + 2 + 3 + 4 + 1 + 2 + 3 + 4 + 1     +  2 + 3  + 4  +

G|-----------------------------------7-------10-r-------------10-r-10-------|
D|------12-r-10-8-10-------10-10-8-7--------------8-------------------------|
A|---10--------------8---8-------------6---6------------6---6---------------|
E|--------------------------------------------------------------------------|
   1 +  2  + 3  + 4  + 1 + 2  +  3 + 4 + 1 + 2  + 3 + 4 + 1 + 2  + 3  + 4 +

Verse 0:11
G|-----------------------------------------------------------------|
D|-----------------------------------------------------------------|
A|-----------------5-5-5-5-5-5-5-5-----------5---------------------|
E|-6-6-6-6-6-6-6-6-----------------3-3-3-3-3---3-3-3-3-3-3-3-3-3-3-|
   1 + 2 + 3 + 4 + 1 + 2 + 3 + 4 + 1 + 2 + 3 + 4 + 1 + 2 + 3 + 4 +

G|-----------------------------------------------------------------|
D|-----------------------------------------------------------------|
A|-3-3-3-3-3-3-----2-2-2-2-2-2-----3-3-3-3-3-3-3-3-----------------|
E|-------------3-3-------------3-3-----------------6-6-6-6-6-6-6-6-|
   1 + 2 + 3 + 4 + 1 + 2 + 3 + 4 + 1 + 2 + 3 + 4 + 1 + 2 + 3 + 4 +

G|-----------------------------------------------------------------|
D|-----------------------------------------------------------------|
A|-------------------------------------------------3-3-3-3-3-3-3-3-|
E|-5---5-5-\-------1-1-1-1-1-1-1-1-6-6-6-6-6-6-6-6-----------------|
   1 + 2 + 3 + 4 + 1 + 2 + 3 + 4 + 1 + 2 + 3 + 4 + 1 + 2 + 3 + 4 +

G|-----------------------------------------------------------------|
D|-----------------------------------------------------------------|
A|-------------------------------3-5-------------------------------|
E|-6-6-6-6-6-6-6-6-5-5-5-5-6-5-6-----------------------------------|
   1 + 2 + 3 + 4 + 1 + 2 + 3 + 4 + 1 + 2 + 3 + 4 + 1 + 2 + 3 + 4 +

Chorus 0:31
G|-----------------------------------------------------------------|
D|-----------------------------5-----------------------7---8-------|
A|-6---6---6---6-6-6-------6-------8---8-8-8---8---8-----------8---|
E|---------------------6-------------------------------------------|
   1 + 2 + 3 + 4 + 1 + 2 + 3 + 4 + 1 + 2 + 3 + 4 + 1 + 2 + 3 + 4 +

G|--------------------------------------------------------------------|
D|-5---5---5---5---5-------5---8---7---7---7---10---10---8h10-8---7---|
A|---------------------6----------------------------------------------|
E|--------------------------------------------------------------------|
   1 + 2 + 3 + 4 + 1 + 2 + 3 + 4 + 1 + 2 + 3 + 4  + 1  + 2 +  3 + 4 +

G|---------7---------------7---------------------------------------|
D|-5---8-------8-------8-------8-----------------------------------|
A|-----------------8---------------6-6-6-6-6-6-6-6-6-6-6-6-6-6-6-6-|
E|-----------------------------------------------------------------|
   1 + 2 + 3 + 4 + 1 + 2 + 3 + 4 + 1 + 2 + 3 + 4 + 1 + 2 + 3 + 4 +

Verse 0:46
G|-----------------------7-r---7-----------------------------------|
D|-------8-r---8---------------------------------------------------|
A|-----------------5---5-----5---5-------------------------5-5-5-3-|
E|-6---6-----6---6-----------------3-3-3-3-3-5-5-5-6-6-6-6---------|
   1 + 2 + 3 + 4 + 1 + 2 + 3 + 4 + 1 + 2 + 3 + 4 + 1 + 2 + 3 + 4 +

G|-----5---5-5-------------------------5-r-----5-r-----4-r---------|
D|-------------5-------5-r-----------------------------------------|
A|---3---3-------------------3-5-3---3-----3-r-----2-r---------3---|
E|---------------3---3-----6-------------------------------5-6---5-|
   1 + 2 + 3 + 4 + 1 + 2 + 3 + 4 + 1 + 2 + 3 + 4 + 1 + 2 + 3 + 4 +

G|-------------------------10-8-7------------------------------------|
D|-----7-r-7-5-7------------------10-----------------------7-8-7-----|
A|-------------------------------------------------------8-------8-6-|
E|---5-----------1---1-1-------------6-6---6-6---6-6---6-------------|
   1 + 2 + 3 + 4 + 1 + 2 + 3  + 4 +  1 + 2 + 3 + 4 + 1 + 2 + 3 + 4 +

G|---------------------------------|
D|-----------------------7-8-7-----|
A|-5-------------------8-------8---|
E|---------------------------------|
   1 + 2 + 3 + 4 + 1 + 2 + 3 + 4 +

Chorus 1:04
G|-----------------------------------------------------------------|
D|-----------------------------5-----------------------7---8-------|
A|-6---6-6-6---6---6-------6-------8---8-8-8---8---8-----------8---|
E|---------------------6-------------------------------------------|
   1 + 2 + 3 + 4 + 1 + 2 + 3 + 4 + 1 + 2 + 3 + 4 + 1 + 2 + 3 + 4 +

G|-------------------------------------------------------------------|
D|-5---5---5---5---5-------5---8---7---7---7---10---10---8---8---7---|
A|---------------------6---------------------------------------------|
E|-------------------------------------------------------------------|
   1 + 2 + 3 + 4 + 1 + 2 + 3 + 4 + 1 + 2 + 3 + 4  + 1  + 2 + 3 + 4 +

G|---------7---------------7---------------------------------------|
D|-5---8-------8-------8-------8---------------------------7h8-----|
A|-----------------8---------------6-----------------------------6\|
E|-----------------------------------------------------------------|
   1 + 2 + 3 + 4 + 1 + 2 + 3 + 4 + 1 + 2 + 3 + 4 + 1 + 2 + 3 + 4 +

Rest

1:23
G|---------------------------------------------------------------------------|
D|-------------------5-------------------------------------------------------|
A|-5-8-5---6---6-8-6---8-6-5---3-5---3-5-5-3-------------8-5-\---5---3-5-3-6-|
E|-------------------------------------------3-3-5-5-8-6---------------------|
   + 3 + 4 + 1 + 2 + 3 + 4 + 1 + 2 + 3 + 4 + 1 + 2 + 3 + 4 + 1 + 2 + 3 + 4 +

G|-----------------------------------------------------------------|
D|---------5-------------------------------------------7---5-------|
A|-----6-8---8-6-5---3-5---3-5-5-3-------------8-5---5---5---8-6-5-|
E|---8-----------------------------3-3-5-5-8-6---------------------|
   1 + 2 + 3 + 4 + 1 + 2 + 3 + 4 + 1 + 2 + 3 + 4 + 1 + 2 + 3 + 4 +

1:34
G|-------7---7-5---5-----------------------------------------------|
D|-------------------8-7---7---------------------------------------|
A|-----------------------8---8-3-4-5-----------------------5-\-----|
E|-8---8-----------------------------------------------------------|
   1 + 2 + 3 + 4 + 1 + 2 + 3 + 4 + 1 + 2 + 3 + 4 + 1 + 2 + 3 + 4 +

Bridge 1:39
G|-----------------------------------------------------------------|
D|-----------------------------------------------------------------|
A|-----------------------------------------------------------------|
E|-6---------------6-------------6-6---------------6-------6-1-----|
   1 + 2 + 3 + 4 + 1 + 2 + 3 + 4 + 1 + 2 + 3 + 4 + 1 + 2 + 3 + 4 +

G|----------------------------------------------------------8-------|
D|--------------------------------------------------8---8-------8---|
A|-----------------------------5---6---6---6---8h10-----------------|
E|-3-------3---3---3---5---6----------------------------------------|
   1 + 2 + 3 + 4 + 1 + 2 + 3 + 4 + 1 + 2 + 3 + 4 +  1 + 2 + 3 + 4 +

1:49
G|-----------------------------------------------------------------|
D|-----------------------------------------------------------------|
A|---------------------5---5---------------------------------------|
E|-6-------6---8---8-----------6-6-5---5---5---5---6---6---6-1-----|
   1 + 2 + 3 + 4 + 1 + 2 + 3 + 4 + 1 + 2 + 3 + 4 + 1 + 2 + 3 + 4 +

Chorus 1:54
G|-----------------------------------------------------------------|
D|-----------------------------------------------------------------|
A|-6-\-------------------------------------------------------------|
E|---------------------------------------------------------1---3---|
   1 + 2 + 3 + 4 + 1 + 2 + 3 + 4 + 1 + 2 + 3 + 4 + 1 + 2 + 3 + 4 +

1:59
G|-------------------------------------------------8---7-----------|
D|---------8---8-----------8---8-----------8-----8---------8-\-----|
A|-----8---------8-----8---------8-------8-----8-------------------|
E|-6---------------6---------------6---6---------------------------|
   1 + 2 + 3 + 4 + 1 + 2 + 3 + 4 + 1 + 2 + 3 + 4 + 1 + 2 + 3 + 4 +

2:04
G|-----------------------------------------------------------------|
D|-----------------------------------------------------------------|
A|-----------------------------------------------------------------|
E|-333333333---33333---33333---3---555555555---55555---55555---5---|
   1 + 2 + 3 + 4 + 1 + 2 + 3 + 4 + 1 + 2 + 3 + 4 + 1 + 2 + 3 + 4 +

G|-----------------------------------------------------------------|
D|-----------------------------------------------------------------|
A|---------------------------------333333333---33333---33333---5---|
E|-666666666---66666---66666---6-----------------------------------|
   1 + 2 + 3 + 4 + 1 + 2 + 3 + 4 + 1 + 2 + 3 + 4 + 1 + 2 + 3 + 4 +

Outro Chorus 2:14
G|-----------------------------------------------------------------|
D|-----------------------------5-----------------------7---8-------|
A|-----------------6-------6-------8---8---8---8---8-----------8---|
E|---------------------6-------------------------------------------|
   1 + 2 + 3 + 4 + 1 + 2 + 3 + 4 + 1 + 2 + 3 + 4 + 1 + 2 + 3 + 4 +

G|-------------------------------------------------------------------|
D|-5---5---5---5---5-------5---8---7---7---7---10---10---8---8---7---|
A|---------------------6---------------------------------------------|
E|-------------------------------------------------------------------|
   1 + 2 + 3 + 4 + 1 + 2 + 3 + 4 + 1 + 2 + 3 + 4  + 1  + 2 + 3 + 4 +

G|-----------------------------------------------------------------|
D|-5---------------7---------------8-------------------------------|
A|--------------------------------------------------------/8-5-5-6-|
E|-----------------------------------------------------------------|
   1 + 2 + 3 + 4 + 1 + 2 + 3 + 4 + 1 + 2 + 3 + 4 + 1 + 2 + 3 + 4 +

G|-----10-r-------------7-r---------------|
D|----------8---------------10-8----------|
A|---6------------8---8--------------10-\-|
E|----------------------------------------|
   1 + 2  + 3 + 4 + 1 + 2 + 3  + 4 + 1
Tabbed by Dave Vucko

            
            
Suggest correction
Creating personal tab
Creating personal tab
You can edit any tab online and save it as your Personal.

You can edit, replace or remove any tab part or add personal notes – all changes will be seen only by you.

Personal tabs can be accessed anytime from any device, even offline.
Learn more »
Give kudos to tab author, rate the tab!
1 2 3 4 5
comments
print report bad tab
guest
You may want to rate the tab now too:
select rating
Wanna post a correction for this tab? Suggest correction