Oops, an error
Loading. Please wait.
2,687 views 6 this week
no commentswrite comment
1 2 3 4 5
x 4
add to favorites
×
Save as Personal and add changes to this tab that will be seen only by you. Learn more ›
×
You can save this tab as Personal to edit and correct it or add notes. All changes will be seen only by you. Learn more »
launch autoscroll
font size
0
reset
how to read this tab
guitar tuner
edit
Autoscroll
slow
fast
+/-
esc
set tempo
stop
Author
Difficulty
Tabbed by Jonny Ford

Video: https://www.youtube.com/watch?v=6zXwebp7Ia4

Tuning:Standard

Intro (Play Twice)
e|------------------------------------------------------------|
B|---------0---------------6----------------------------------|
G|-----5-----5---5-----7---7---------4-----------0-------1----|
D|---7---7-----7-----7---7-7-----5-----5---5---2---2---2---2--|
A|-0---------------5-------5---5---5-----5---3-------2--------|
E|---------------------------3--------------------------------|


Intro part 2:
e|---------------------------------------------------------------------------|
B|---------------------------------------------------------------------------|
G|---1--------7-7-7-7-7-7-7-7--9-9-9-9-9-------------------------------------|
D|-3-2-7------7-7-7-7-7-7-7-7--9-9-9-9-9-------------------------------------|
A|-3-2-7------5-5-5-5-5-5-5-5--7-7-7-7-7-------------------------------------|
E|-1-0-5-3-1-----------------------------------------------------------------|

Chorus: (Strum chords to the rhythm, Play Twice)
e|---------------------------------------------------------------------------|
B|---------------------------------------------------------------------------|
G|-5--1----------------------------------------------------------------------|
D|-5--2--7--3--5-------------------------------------------------------------|
A|-3--2--7--3--5-------------------------------------------------------------|
E|----0--5--1--3-------------------------------------------------------------|


Lead riff:
e|---------------------------------------------------------------------------|
B|---10---10-9----9------10-12br-12-10---------------------------------------|
G|-9----9------10---10-9---------------13------------------------------------|
D|---------------------------------------------------------------------------|
A|---------------------------------------------------------------------------|
E|---------------------------------------------------------------------------|


Verse:(Strum chords to the rhythm)
e|---------------------------------------------------------------------------|
B|---------------------------------------------------------------------------|
G|-------------9-9-----------------------------7---5-1----7---9--------------|
D|-10-10-----------10-10-12-12-10-10-9-9-10-10-7-5-5-2--7-7-5-9--------------|
A|-------12-12---------------------------------5-5-3-2--7-5-5-7--------------|
E|-----------------------------------------------3---0--5---3----------------|

Pre Chorus:
e|---------------------------------------------------------------------------|
B|---------------------------------------------------------------------------|
G|---1--------7-7-7-7-7-7-7-7--9-9-9-9-9-------------------------------------|
D|-3-2-7------7-7-7-7-7-7-7-7--9-9-9-9-9-------------------------------------|
A|-3-2-7------5-5-5-5-5-5-5-5--7-7-7-7-7-------------------------------------|
E|-1-0-5-3-1-----------------------------------------------------------------|

Chorus: (Strum chords to the rhythm, Play Twice)
e|---------------------|-----------------------------------------------------|
B|---------------------|-end chorus on this chord----------------------------|
G|-5--1----------------|--------------------------5--------------------------|
D|-5--2--7--3--5-------|--------------------------5--------------------------|
A|-3--2--7--3--5-------|--------------------------3--------------------------|
E|----0--5--1--3-------|-----------------------------------------------------|

Bridge:
e|-------------------------5-------------------------------------------------|
B|---------0---------------6-------------------------------------------------|
G|-----5-----5---5-----5---5-------------------------------------------------|
D|---7---5-----7-----5---5-5-------------------------------------------------|
A|-0---------------3-------3-------------------------------------------------|
E|---------------------------------------------------------------------------|

Breakdown:
e|----------------------------------------------------------------------------|
B|----------------------------------------------------------------------------|
G|---------5-------5-----5-6---------5------------------------5-------5--4-5-6|
D|----------------------------------------------5-----------------------------|
A|-000-000---000-0---000-----000-000---00-0-5-6---6-5-000-000---000-0---0-----|
E|----------------------------------------------------------------------------|

e|-----------------------------------------------------------------------------|
B|-----------------------------------------------------------------------------|
G|------------------------------------5-------5-----5-6--------5----8-7-5-8-7-5|
D|---------5-------------------------------------------------------------------|
A|-000-000---00-6-5-3-0-3-5-6-000-000---000-0---000-----000-000--00------------|
E|-----------------------------------------------------------------------------|

e|---------------------------------------------------------------------------|
B|---------------------------------------------------------------------------|
G|---------5-------5-----5-6---------5---------------------------------------|
D|---------------------------------------------------------------------------|
A|-000-000---000-0---000-----000-000--00-------------------------------------|
E|---------------------------------------------------------------------------|

Chorus:(Strum chords to rhythm)
e|---------------------------------------------------------------------------|
B|---------------------------------------------------------------------------|
G|-5-1------5-1------5-1---3-4--5-1-------5----------------------------------|
D|-5-2-7-3--5-2-3-5--5-2-3-3-4--5-2-7-3-5-5----------------------------------|
A|-3-2-7-3--3-2-3-5--3-2-3-1-2--3-2-7-3-5-3----------------------------------|
E|---0-5-1----0-1-3----0-1--------0-5-1-3------------------------------------|

            
            
Suggest correction
Creating personal tab
Creating personal tab
You can edit any tab online and save it as your Personal.

You can edit, replace or remove any tab part or add personal notes – all changes will be seen only by you.

Personal tabs can be accessed anytime from any device, even offline.
Learn more »
comments
print report bad tab
guest
You may want to rate the tab now too:
select rating
Wanna post a correction for this tab? Suggest correction