Oops, an error
Loading. Please wait.

Happy Day tab

by Fee
376 views 1 this week
no commentswrite comment
1 2 3 4 5
1 last vote to show rating
add to favorites
×
Save as Personal and add changes to this tab that will be seen only by you. Learn more ›
×
You can save this tab as Personal to edit and correct it or add notes. All changes will be seen only by you. Learn more »
launch autoscroll
font size
0
reset
how to read this tab
guitar tuner
edit
Autoscroll
slow
fast
+/-
esc
set tempo
stop
-------------------------------------------------------------------------------
                             HAPPY DAY - Fee
-------------------------------------------------------------------------------

Tuning: Standard

Guitar 1
Intro
e|---------------------------------------------------------------------------|
B|---------------------------------------------------------------------------|
G|66666666-------------------------------------------------------------------|
D|66666666-44444444-88888888-66666666----------------------------------------|
A|44444444-44444444-88888888-66666666----------------------------------------|
E|---------22222222-66666666-44444444----------------------------------------|

Verse
e|---------------------------------------------------------------------------|
B|---------------------------------------------------------------------------|
G|6666666666666666-----------------------------------------------------------|
D|6666666666666666-4444444444444444-8888888888888888-4444444444444444--------|
A|4444444444444444-4444444444444444-8888888888888888-4444444444444444--------|
E|-----------------2222222222222222-6666666666666666-2222222222222222--------|

e|---------------------------------------------------------------------------|
B|---------------------------------------------------------------------------|
G|---------------------------------------------------------------------------|
D|6666666666666666-----------------------------------------------------------|
A|6666666666666666-----------------------------------------------------------|
E|4444444444444444-----------------------------------------------------------|

Chorus 1
3x
e|---------------------------------------------------------------------------|
B|---------------------------------------------------------------------------|
G|66666666-------------------------------------------------------------------|
D|66666666-44444444-88888888-66666666----------------------------------------|
A|44444444-44444444-88888888-66666666----------------------------------------|
E|---------22222222-66666666-44444444----------------------------------------|

e|---------------------------------------------------------------------------|
B|---------------------------------------------------------------------------|
G|---------------------------------------------------------------------------|
D|33333333-44444444-88888888-66666666----------------------------------------|
A|33333333-44444444-88888888-66666666----------------------------------------|
E|11111111-22222222-66666666-44444444----------------------------------------|

Verse

Chorus 1

Bridge
e|---------------------------------------------------------------------------|
B|---------------------------------------------------------------------------|
G|------------------------------------------------6666666666666666-----------|
D|8---------------3---------------4---------------6666666666666666-----------|
A|8---------------3---------------4---------------4444444444444444-----------|
E|6---------------1---------------2------------------------------------------|

e|---------------------------------------------------------------------------|
B|---------------------------------------------------------------------------|
G|---------------------------------------------------6666666666666666--------|
D|8888888888888888-3333333333333333-4444444444444444-6666666666666666--------|
A|8888888888888888-3333333333333333-4444444444444444-4444444444444444--------|
E|6666666666666666-1111111111111111-2222222222222222-------------------------|

Chorus 2
e|---------------------------------------------------------------------------|
B|---------------------------------------------------------------------------|
G|------------------66666666-------------------------------------------------|
D|88888888-66666666-66666666-44444444-88888888-66666666----------------------|
A|88888888-66666666-44444444-44444444-88888888-66666666----------------------|
E|66666666-44444444----------22222222-66666666-44444444----------------------|

Chorus 1

Ending
e|---------------------------------------------------------------------------|
B|---------------------------------------------------------------------------|
G|6--------------------------------------------------------------------------|
D|6--------------------------------------------------------------------------|
A|4--------------------------------------------------------------------------|
E|---------------------------------------------------------------------------|

Guitar 2
Intro
e|---------------------------------------------------------------------------|
B|999999999-777777777-666666666-7777-----------------------------------------|
G|666666666-666666666-666666666-6666-----------------------------------------|
D|---------------------------------------------------------------------------|
A|---------------------------------------------------------------------------|
E|---------------------------------------------------------------------------|

e|---------------------------------------------------------------------------|
B|999999999-777777777-666666666-77777777-------------------------------------|
G|666666666-666666666-666666666-66666666-------------------------------------|
D|---------------------------------------------------------------------------|
A|---------------------------------------------------------------------------|
E|---------------------------------------------------------------------------|

Verse
e|---------------------------------------------------------------------------|
B|---------------------------------------------------------------------------|
G|1111-101010-66666666666-1111-101010-1111111111111111111111-1515-1111-------|
D|x-x--x-x-x--xxxxxxxxxxx-x-x--x-x-x--x-x-x-x-x-x-x-x-x-x-x--x-x--x-x--------|
A|9-9--8-8-8--44444444444-9-9--8-8-8--9-9-9-9-9-9-9-9-9-9-9--1313-9-9--------|
E|---------------------------------------------------------------------------|

e|---------------------------------------------------------------------------|
B|---------------------------------------------------------------------------|
G|1010101010101010101010-8-8-1010-111111111111111111111111-66----------------|
D|x-x-x-x-x-x-x-x-x-x-x--x-x-x-x--x-x-x-x-x-x-x-x-x-x-x-x--xx----------------|
A|8-8-8-8-8-8-8-8-8-8-8--6-6-8-8--9-9-9-9-9-9-9-9-9-9-9-9--44----------------|
E|---------------------------------------------------------------------------|

e|---------------------------------------------------------------------------|
B|---------------------------------------------------------------------------|
G|111111-101010-666-131313-6666----------------------------------------------|
D|x-x-x--x-x-x--xxx-x-x-x--xxxx----------------------------------------------|
A|9-9-9--8-8-8--444-111111-4444----------------------------------------------|
E|---------------------------------------------------------------------------|

Chorus 1
e|---------------------------------------------------------------------------|
B|999999999-777777777-666666666-777777777------------------------------------|
G|666666666-666666666-666666666-666666666------------------------------------|
D|---------------------------------------------------------------------------|
A|---------------------------------------------------------------------------|
E|---------------------------------------------------------------------------|

e|---------------------------------------------------------------------------|
B|999999999-777777777-666666666-77777777-------------------------------------|
G|666666666-666666666-666666666-66666666-------------------------------------|
D|---------------------------------------------------------------------------|
A|---------------------------------------------------------------------------|
E|---------------------------------------------------------------------------|

2x
e|9999------11111111------13131313------1414-1313-1111-9---------------------|
B|-----9999----------9999----------9999--------------------------------------|
G|---------------------------------------------------------------------------|
D|---------------------------------------------------------------------------|
A|---------------------------------------------------------------------------|
E|---------------------------------------------------------------------------|

Verse

Chorus 1

Bridge
e|9999999999999999-999999999999-11111111-888888888888-6666-9999999999999999--|
B|---------------------------------------------------------------------------|
G|---------------------------------------------------------------------------|
D|---------------------------------------------------------------------------|
A|---------------------------------------------------------------------------|
E|---------------------------------------------------------------------------|

e|1616161616161616161616161616161616\----------------------------------------|
B|---------------------------------------------------------------------------|
G|---------------------------------------------------------------------------|
D|---------------------------------------------------------------------------|
A|---------------------------------------------------------------------------|
E|---------------------------------------------------------------------------|

Chorus 2
e|---------------------------------------------------------------------------|
B|666666666-777777777-999999999-777777777-666666666-777777777----------------|
G|666666666-666666666-666666666-666666666-666666666-666666666----------------|
D|---------------------------------------------------------------------------|
A|---------------------------------------------------------------------------|
E|---------------------------------------------------------------------------|

Chorus 1


************************************

| \   slide down
| x   Mute note

************************************

            
            
Suggest correction
Creating personal tab
Creating personal tab
You can edit any tab online and save it as your Personal.

You can edit, replace or remove any tab part or add personal notes – all changes will be seen only by you.

Personal tabs can be accessed anytime from any device, even offline.
Learn more »
Give kudos to tab author, rate the tab!
1 2 3 4 5
comments
print report bad tab
guest
You may want to rate the tab now too:
select rating
Wanna post a correction for this tab? Suggest correction