Oops, an error
Loading. Please wait.

Misery tab

804 views 1 this week
1 commentread comment
1 2 3 4 5
x 6
add to favorites
×
Save as Personal and add changes to this tab that will be seen only by you. Learn more ›
×
You can save this tab as Personal to edit and correct it or add notes. All changes will be seen only by you. Learn more »
launch autoscroll
font size
0
reset
how to read this tab
guitar tuner
edit
Autoscroll
slow
fast
+/-
esc
set tempo
stop
FEED HER TO THE SHARKS

MISERY

C-G-C-F-A-D


TABBED BY andherembrace



0:04

1
-----------------------------------------------------------------------|
-----------------------------------------------------------------------|
----------------------------------------------------------1087---------|
----------------------------7---8-----------------------------1087-----|
----7-----8---10-----10---------------7-----8---10-----7-8---------108-|
000---000---0----000----000---0---000---000---0----000-----------------|
***   ***   *    ***    ***   *   ***   ***   *    ***
2
-----------------------------------------------------------------|
-----------------------------------------------------------------|
-----------------------------------------------------------------|
-----------------------------------------------------------------|
-----------------------------------------------------------------|
-000-000-000-000-7-5-7-0-000-000-000-000-000-000-7-5-7-0-000-000-|
 *** *** *** *** * * * * *** *** *** *** *** *** * * * * *** ***


1
------------------------------------------------------------------------|
------------------------------------------------------------------------|
---------------------------------------------------1087-------87--------|
----------------------------7---8----------------------1087-----1087----|
----7-----8---10-----10---------------7-----8---10---------108------1087|
000---000---0----000----000---0---000---000---0-------------------------|
***   ***   *    ***    ***   *   ***   ***   *    
2
-----------------------------------------------------------------|
-----------------------------------------------------------------|
-----------------------------------------------------------------|
-----------------------------------------------------------------|
-----------------------------------------------------------------|
-000-000-000-000-7-5-7-0-000-000-000-000-000-000-7-5-7-0-000-000-|
 *** *** *** *** * * * * *** *** *** *** *** *** * * * * *** ***




0:14

B
-----------------------------------------------------------------------|
-----------------------------------------------------------------------|
----------------------------------------------------------1087---------|
----------------------------7---8-----------------------------1087-----|
----7-----8---10-----10---------------7-----8---10-----7-8---------108-|
000---000---0----000----000---0---000---000---0----000-----------------|
***   ***   *    ***    ***   *   ***   ***   *    ***

------------------------------------------------------------------------|
------------------------------------------------------------------------|
---------------------------------------------------1087-------87--------|
----------------------------7---8----------------------1087-----1087----|
----7-----8---10-----10---------------7-----8---10---------108------1087|
000---000---0----000----000---0---000---000---0-------------------------|
***   ***   *    ***    ***   *   ***   ***   *    




0:24

---------------------------------------------------|
---------------------------------------------------|
---------------------------------------------------|
-0---3---1---4------------4---3---1---3------------|
-0---3---1---4---3-1-3-1--4---3---1---3---1-0-1-0--|
-0---3---1---4---3-1-3-1--4---3---1---3---1-0-1-0--|
                 * * * *                  * * * *

---------------------------------------------------|
---------------------------------------------------|
---------------------------------------------------|
-0---3---1---4------------4---3---1---3------------|
-0---3---1---4---3-1-3-1--4---3---1---3---1-0-1-0--|
-0---3---1---4---3-1-3-1--4---3---1---3---1-0-1-0--|
                 * * * *                  * * * *




0:36

-----------------------------------------------------------------|
-----------------------------------------------------------------|
-----------------------------------------------------------------|
-----------------------------------------------------------------|
-000-000---000---000-000---000---000-000---000---000-000---000---|
-000-000-0-000-0-000-000-0-000-0-000-000-0-000-0-000-000-0-000-0-|
 *** *** * *** * *** *** * *** * *** *** * *** * *** *** * *** *

--------------------------------------------------------------------|
--------------------------------------------------------------------|
--------------------------------------------------------------------|
--------------------------------------------------------------------|
-000-000---000---000-000---000---000-000---000---000-000---000---0--|
-000-000-0-000-0-000-000-0-000-0-000-000-0-000-0-000-000-0-000-0-0--|
 *** *** * *** * *** *** * *** * *** *** * *** * *** *** * *** *  |




0:48

1
-----------------------------------------------------------------|
-----------------------------------------------------------------|
14----14----14----15----14--12--14----12----14----15----14--12---|
--1212--1212--1212--1212--12--12--1212--1212--1212--1212--12--12-|
-----------------------------------------------------------------|
-----------------------------------------------------------------|
2
---------------------------------------------------|
---------------------------------------------------|
---------------------------------------------------|
-0---3---1---4------------4---3---1---3------------|
-0---3---1---4---3-1-3-1--4---3---1---3---1-0-1-0--|
-0---3---1---4---3-1-3-1--4---3---1---3---1-0-1-0--|
                 * * * *                  * * * *


1
-----------------------------------------------------------------|
-----------------------------------------------------------------|
14----14----14----15----14--12--14----15----14----12----14--12---|
--1212--1212--1212--1212--12--12--1212--1212--1212--1212--12--12-|
-----------------------------------------------------------------|
-----------------------------------------------------------------|
2
---------------------------------------------------|
---------------------------------------------------|
---------------------------------------------------|
-0---3---1---4------------4---3---1---3------------|
-0---3---1---4---3-1-3-1--4---3---1---3---1-0-1-0--|
-0---3---1---4---3-1-3-1--4---3---1---3---1-0-1-0--|
                 * * * *                  * * * *





0:58

1
-----------------------------------------------------------------------|
-----------------------------------------------------------------------|
----------------------------------------------------------1087---------|
----------------------------7---8-----------------------------1087-----|
----7-----8---10-----10---------------7-----8---10-----7-8---------108-|
000---000---0----000----000---0---000---000---0----000-----------------|
***   ***   *    ***    ***   *   ***   ***   *    ***


---------------------------------------------------------------------|
---------------------------------------------------------------------|
---------------------------------------------------------------------|
---------------------------------------------------------------------|
00000-----------------------------00000-----------------000-0-000-0--|
00000-----------------------------00000-----------------000-0-000-0--|
*****                             *****                 *** * *** *


1
-----------------------------------------------------------|
-----------------------------------------------------------|
-----------------------------------------------------------|
----------------------------7---8--------------------------|
----7-----8---10-----10-----------0---0---0---0---0-0-0-0--|
000---000---0----000----000---0---0---0---0---0---0-0-0-0--|
***   ***   *    ***    ***   *   *   *   *   *   * * * *
2
-----------------------------------------------------------|
-----------------------------------------------------------|
-----------------------------------------------------------|
-----------------------------------------------------------|
-0--------------------------------0---0---0---0---0-0-0-0--|
-0--------------------------------0---0---0---0---0-0-0-0--|
 *                                *   *   *   *   * * * *



1:09

B
-------------------------------------------------------------------|
-------------------------------------------------------------------|
-------------------------------------------------------------------|
----------------------------7---8------------------7-7-7-7-5-5-5-5-|
----7-----8---10-----10---------------7-----8---10-8-8-8-8-7-7-7-7-|
0-0---0-0---0----0-0----0-0---0---0-0---0-0---0--------------------|
* *   * *   *    * *    * *   *   * *   * *   *  

-----------------------------------------------------------------------|
-----------------------------------------------------------------------|
-----------------------------------------------------------------------|
----------------------------7---8------------------7-7-7-7--8--8--8--8-|
----7-----8---10-----10---------------7-----8---10-8-8-8-8-10-10-10-10-|
0-0---0-0---0----0-0----0-0---0---0-0---0-0---0------------------------|
* *   * *   *    * *    * *   *   * *   * *   *  




1:20

-----------------------------------------------------------------|
-----------------------------------------------------------------|
-----------------------------------------------------------------|
---------------------------------------------------5-5-5---5-5-5-|
-0-0-0-0-0-------0-0-0-0-0-------0-0-0-0-0---------6-6-6---6-6-6-|
-0-0-0-0-0-0-0-0-0-0-0-0-0-0-0-0-0-0-0-0-0-0-0-0-0-------0-------|
 * * * * *       * * * * *       * * * * *       *       *

------------------------------------------------------------------|
------------------------------------------------------------------|
------------------------------------------------------------------|
-----------------------------------------------------5-5-----5-5--|
-0-0-0-0-0-------0-0-0-0-0-------0-0-0-0-0-----------6-6-----6-6--|
-0-0-0-0-0-0-0-0-0-0-0-0-0-0-0-0-0-0-0-0-0-0-0-0-0-0-----0-0-----0|
 * * * * *       * * * * *       * * * * *       * *     * *     *

---------------|
---------------|
---------------|
---------------|
--------12-----|
--0-0-0-12\----|
  * * *





1:31

---------------------------------------------------------------|
---------------------------------------------------------------|
---------------------------------------------------------------|
---------------------------------------------------------------|
-000-----000-000-----000-000---000-----000-000-----000-4-4-4-4-|
-000---0-000-000---0-000-000---000---0-000-000---0-000---------|
 ***   * *** ***   * *** ***   ***   * *** ***   * *** H H H H

---------------------------------------------------------------|
---------------------------------------------------------------|
------------------------------------------------------5--------|
--------------------------------------------------4---------1--|
-000-----000-000-----000-000---000-----000-000--4---4---0-0-1--|
-000---0-000-000---0-000-000---000---0-000-000----------0-0-1--|
 ***   * *** ***   * *** ***   ***   * *** ***  H H H H * *




1:42

1
-----------------------------------------------------------------|
-----------------------------------------------------------------|
14----14----14----15----14--12--14----12----14----15----14--12---|
--1212--1212--1212--1212--12--12--1212--1212--1212--1212--12--12-|
-----------------------------------------------------------------|
-----------------------------------------------------------------|
2
---------------------------------------------------|
---------------------------------------------------|
---------------------------------------------------|
-0---3---1---4------------4---3---1---3------------|
-0---3---1---4---3-1-3-1--4---3---1---3---1-0-1-0--|
-0---3---1---4---3-1-3-1--4---3---1---3---1-0-1-0--|
                 * * * *                  * * * *


1
-----------------------------------------------------------------|
-----------------------------------------------------------------|
14----14----14----15----14--12--14----15----14----12----14--12---|
--1212--1212--1212--1212--12--12--1212--1212--1212--1212--12--12-|
-----------------------------------------------------------------|
-----------------------------------------------------------------|
2
---------------------------------------------------|
---------------------------------------------------|
---------------------------------------------------|
-0---3---1---4------------4---3---1---3------------|
-0---3---1---4---3-1-3-1--4---3---1---3---1-0-1-0--|
-0---3---1---4---3-1-3-1--4---3---1---3---1-0-1-0--|
                 * * * *                  * * * *




1:53


1
---------------------------------------------------------------------|
---------------------------------------------------------------------|
-----------------------------------------------------------------^---|
-5-0-0-7-0-0-8-0-0-5-0-0-7-0-8-10-12-0-0-10-0-0-8-0-8-7-0-0-8-0-8-7--|
---------------------------------------------------------------------|
---------------------------------------------------------------------|
2
--------------------------------------------------------------------|
--------------------------------------------------------------------|
--------------------------------------------------------------------|
-0---------------------------4--------------------------------------|
-0-----------3-1-1-1-3-1-1-1-4--------------------4-3-3-3-4-3-3-3---|
-0-----------3-1-1-1-3-1-1-1-4--------------------4-3-3-3-4-3-3-3---|
             * * * * * * * *                      * * * * * * * *



1:58

1
----------------------------------------------------------------------------|
--------------------------------------------------------------------------^-|
---------------------------------------------------7-8-7--7--------------7-8|
5-0-0-7-0-0-8-0-0-5-0-0-7-0-8-10-12-0-0-10-0-0-8-0------10-10-8-7-10-8-7----|
----------------------------------------------------------------------------|
----------------------------------------------------------------------------|
2
--------------------------------------------------------------------|
--------------------------------------------------------------------|
--------------------------------------------------------------------|
-0---------------------------4--------------------------------------|
-0-----------3-1-1-1-3-1-1-1-4--------------------4-3-3-3-4-3-3-3---|
-0-----------3-1-1-1-3-1-1-1-4--------------------4-3-3-3-4-3-3-3---|
             * * * * * * * *                      * * * * * * * *


2:04

1
------------------------------------------------------|
------------------------------------------------------|
------------------------------------------------------|
1212121200121212120012121212001212121200121200121200--|
------------------------------------------------------|
------------------------------------------------------|

2
------------------------------------------------------|
------------------------------------------------------|
------------------------------------------------------|
-0----------------------------------------------------|
-0----------------------------------------------------|
-0----------------------------------------------------|





2:06



SOLO
                           __                     __
1       /\          ^     /  \     /\     /\     /  \     /\     /\
------131713------13-17-18-17-13-181713-181713-20-17-13-201713-201713-|
----14------14--14-------T--------T------T------T--------T------T-----|
--15----------15------------------------------------------------------|
17--------------------------------------------------------------------|
----------------------------------------------------------------------|
----------------------------------------------------------------------|

2
----------------------------------------------------------------|
----------------------------------------------------------------|
----------------------------------------------------------------|
----------------------------------------------------------------|
-0---0---0---0---0---0---0---0---1---1---1---1---4---4---4---4--|
-0---0---0---0---0---0---0---0---1---1---1---1---4---4---4---4--|


    ____        ____        ____        ____        ____
1  /    \      /    \      /    \      /    \      /    \
-22--17--13--20--17--13--18--17--13--20--17--13--18--17--13--|
-------------------------------------------------------------|
-------------------------------------------------------------|
-------------------------------------------------------------|
-------------------------------------------------------------|
-------------------------------------------------------------|

2
---------------------------------------------------------------|
---------------------------------------------------------------|
---------------------------------------------------------------|
---------------------------------------------------------------|
-3---3---3---3---3---3---3---3---3---3---3---3---4---4---4---4-|
-3---3---3---3---3---3---3---3---3---3---3---3---4---4---4---4-|





2:12


1
----13151718----13151718----1315----15171820----15171820----1517|
1517--------1517--------1517----1718--------1718--------1718----|
----------------------------------------------------------------|
----------------------------------------------------------------|
----------------------------------------------------------------|
----------------------------------------------------------------|

2
----------------------------------------------------------------|
----------------------------------------------------------------|
----------------------------------------------------------------|
----------------------------------------------------------------|
-0---0---0---0---0---0---0---0---1---1---1---1---4---4---4---4--|
-0---0---0---0---0---0---0---0---1---1---1---1---4---4---4---4--|




2:14


1
-20--18--17--15--18--17--15----17--15--------15-------------|
----------------------------18--------18--17----18--17--15--|
------------------------------------------------------------|
------------------------------------------------------------|
------------------------------------------------------------|
------------------------------------------------------------|

2
---------------------------------------------------------------|
---------------------------------------------------------------|
---------------------------------------------------------------|
---------------------------------------------------------------|
-3---3---3---3---3---3---3---3---3---3---3---3---4---4---4---4-|
-3---3---3---3---3---3---3---3---3---3---3---3---4---4---4---4-|




2:17

                __
1  ^           /  \
-22-17-------13-17-13----------------------------------------------|
------18-------------15-----------------------------)-15--)-15---)-|
-------19--19----------14----------------------15-17----17-----17--|
---------19--------------15--------15-19-17-19---------------------|
---------------------------17---17---------------------------------|
-------------------------------------------------------------------|

2
-------------------------------------------------------------------|
-------------------------------------------------------------------|
-------------------------------------------------------------------|
-------------------------------------------------------------------|
-0-----------------------------1-------------4-----3---------------|
-0-----------------------------1-------------4-----3---------------|



2:21

1
---^-----------^-----^-----------^-----^-----------|
-18-15---^---18-15-18-15---^---18-15-18-15------)--|
-------17-15-------------17-15-------------17-17---|
---------------------------------------------------|
---------------------------------------------------|
---------------------------------------------------|

2
----------------------------------------------------|
----------------------------------------------------|
----------------------------------------------------|
----------------------------------------------------|
-3-----------------------------4--------------------|
-3-----------------------------4--------------------|
                                                   





-------------------------------------------------------|
-------------------------------------------------------|
-------------------------------------------------------|
-------------------------------------------------------|
-00000--------------00000--------------000--0--000--0--|
-00000--------------00000--------------000--0--000--0--|
 *****              *****              ***  *  ***  *



2:28

1
------------------------------------------------------------------------|
------------------------------------------------------------------------|
---------------------------------------------------1087-------87--------|
----------------------------7---8----------------------1087-----1087----|
----7-----8---10-----10---------------7-----8---10---------108------1087|
000---000---0----000----000---0---000---000---0-------------------------|
***   ***   *    ***    ***   *   ***   ***   *    

2
---------------------------------------------------------------------|
---------------------------------------------------------------------|
---------------------------------------------------------------------|
---------------------------------------------------------------------|
00000-----------------------------00000-----------------000-0-000-0--|
00000-----------------------------00000-----------------000-0-000-0--|
*****                             *****                 *** * *** *





B
-----------------------------------------------------------------------|
-----------------------------------------------------------------------|
----------------------------------------------------------1087---------|
----------------------------7---8-----------------------------1087-----|
----7-----8---10-----10---------------7-----8---10-----7-8---------108-|
000---000---0----000----000---0---000---000---0----000-----------------|
***   ***   *    ***    ***   *   ***   ***   *    ***

------------------------------------------------------------------------|
------------------------------------------------------------------------|
---------------------------------------------------1087-------87--------|
----------------------------7---8----------------------1087-----1087----|
----7-----8---10-----10---------------7-----8---10---------108------1087|
000---000---0----000----000---0---000---000---0-------------------------|
***   ***   *    ***    ***   *   ***   ***   *    





2:44

1
-------------------------------------------------------------------|
-------------------------------------------------------------------|
-------------------------------------------------------------------|
----------------------------7---8------------------7-7-7-7-5-5-5-5-|
----7-----8---10-----10---------------7-----8---10-8-8-8-8-7-7-7-7-|
0-0---0-0---0----0-0----0-0---0---0-0---0-0---0--------------------|
* *   * *   *    * *    * *   *   * *   * *   *  

2
---------------------------------------------------------------|
---------------------------------------------------------------|
---------------------------------------------------------------|
---------------------------------------------------------------|
-0-0-0---0-0---0----00000000--0-0-0---0-0---0---00000000-------|
-0-0-0---0-0---0----00000000--0-0-0---0-0---0---00000000-------|
 * * *   * *   *    ********  * * *   * *   *   ********




1
-------------------------------------------------------------------|
-------------------------------------------------------------------|
-------------------------------------------------------------------|
----------------------------7---8------------------7-7-7-7-5-5-5-5-|
----7-----8---10-----10---------------7-----8---10-8-8-8-8-7-7-7-7-|
0-0---0-0---0----0-0----0-0---0---0-0---0-0---0--------------------|
* *   * *   *    * *    * *   *   * *   * *   *  

2
---------------------------------------------------------------|
---------------------------------------------------------------|
---------------------------------------------------------------|
---------------------------------------------------------------|
-0-0-0---0-0---0----00000000--0-0-0---0-0---0---00000000-------|
-0-0-0---0-0---0----00000000--0-0-0---0-0---0---00000000-------|
 * * *   * *   *    ********  * * *   * *   *   ********




2:57

-------------------------------------------------------|
-------------------------------------------------------|
-------------------------------------------------------|
-------------------------------------------------------|
-00-00-00-00-0-0-0-0-00-00-00-00-00-00-00000000-00-00--|
-00-00-00-00-0-0-0-0-00-00-00-00-00-00-00000000-00-00--|
 ** ** ** ** * * * * ** ** ** ** ** ** ******** ** **


-----------------------------------------|
-----------------------------------------|
-----------------------------------------|
-----------------------------------------|
-00-00-00-00-0-0-0-0-00-00-00-00-0-------|
-00-00-00-00-0-0-0-0-00-00-00-00-0-------|
 ** ** ** ** * * * * ** ** ** ** 




---------------------------------------------------------------|
---------------------------------------------------------------|
---------------------------------------------------------------|
---------------------------------------------------------------|
-000-----000-000-----000-000---000-----000-000-----000-4-4-4-4-|
-000---0-000-000---0-000-000---000---0-000-000---0-000---------|
 ***   * *** ***   * *** ***   ***   * *** ***   * *** H H H H

---------------------------------------------------------------|
---------------------------------------------------------------|
------------------------------------------------------5--------|
--------------------------------------------------4---------1--|
-000-----000-000-----000-000---000-----000-000--4---4---0-0-1--|
-000---0-000-000---0-000-000---000---0-000-000----------0-0-1--|
 ***   * *** ***   * *** ***   ***   * *** ***  H H H H * *





--------------------------------------------------------------------|
--------------------------------------------------------------------|
--------------------------------------------------------------------|
--------------------------------------------------------------------|
-000---0-0-0-0-0---000---0-0-0-0-0---000---0-0-0-0-0--000-000---000-|
-000---0-0-0-0-0---000---0-0-0-0-0---000---0-0-0-0-0--000-000---000-|
 ***   * * * * *   ***   * * * * *   ***   * * * * *  *** ***   ***

----------------------------------------------------------------------|
----------------------------------------------------------------------|
----------------------------------------------------------------------|
----------------------------------------------------------------------|
-000---0-0-0-0-0---000---0-0-0-0-0---000---0-0-0-0-0--111-111-111-111-|
-000---0-0-0-0-0---000---0-0-0-0-0---000---0-0-0-0-0--111-111-111-111-|
 ***   * * * * *   ***   * * * * *   ***   * * * * *  *** *** *** ***

            
            
Suggest correction
Creating personal tab
Creating personal tab
You can edit any tab online and save it as your Personal.

You can edit, replace or remove any tab part or add personal notes – all changes will be seen only by you.

Personal tabs can be accessed anytime from any device, even offline.
Learn more »
comments
print report bad tab
1 comment total.
0 reply
craigb47 40 Jun 14, 2013 09:28 PM

Thanks man you are the best :)

guest
You may want to rate the tab now too:
select rating
Wanna post a correction for this tab? Suggest correction