Oops, an error
Loading. Please wait.

Save Us tab

version 3
version 3

Whole song

by Feeder
1,283 views 3 this week
no commentswrite comment
1 2 3 4 5
2 more votes to show rating
add to favorites
×
Save as Personal and add changes to this tab that will be seen only by you. Learn more ›
×
You can save this tab as Personal to edit and correct it or add notes. All changes will be seen only by you. Learn more »
launch autoscroll
font size
0
reset
how to read this tab
guitar tuner
edit
Autoscroll
slow
fast
+/-
esc
set tempo
stop
SAVE US
Feeder

This may not be 100% right, but I haven't found a satisfactory tab. This is in the right key, anyhow.

DROP D TUNING

Intro
e|--------------------------------------------------|
B|--------------------------------------------------|
G|--14-14-14-14-14-14-14-14-14--11-11-11-11--7-7-7--|
D|--14-14-14-14-14-14-14-14-14--11-11-11-11--7-7-7--|
A|--------------------------------------------------|
D|--------------------------------------------------|

This sounds alright, too, if you wanna alternate throughout the song:

e|--------------------------------------------------|
B|--------------------------------------------------|
G|--------------------------------------------------|
D|--14-14-14-14-14-14-14-14-14--11-11-11-11--7-7-7--|
A|--12-12-12-12-12-12-12-12-12---9--9--9--9--5-5-5--|
D|--------------------------------------------------|

Or, you can combine the two above ones, or yet again, this:

e|-------------------------------------|
B|-------------------------------------|
G|-------------------------------------|
D|--7-7-7-7-7-7-7-7-7--4-4-4-4--0-0-0--|
A|--7-7-7-7-7-7-7-7-7--4-4-4-4--0-0-0--|
D-------------------------------------|

Chorus
e|-------------------------------------------|
B|-------------------------------------------|
G|-------------------------------------------|
D|--2/7-7-7-7-7-7-7-7-7--4-4-4-4--0-0-0-0-0--|
A|--2/7-7-7-7-7-7-7-7-7--4-4-4-4--0-0-0-0-0--|
D|--2/7-7-7-7-7-7-7-7-7--4-4-4-4--0-0-0-0-0--|

               OR    |------------------------|
                     |------------------------|
                     |--11-11-11-11--7-7-7-7--|
                     |--11-11-11-11--7-7-7-7--|
                     |---9--9--9--9--5-5-5-5--|
                     |------------------------|

Picking parts            End
e|--------12------------|----------------------------------|
B|--10-12-----10-12-10--|--14--14--14--14--14--14--15--15--|
G|----------------------|----14--14--14--14--14--14--14----|
D|----------------------|----------------------------------|
A|----------------------|----------------------------------|
D|----------------------|----------------------------------|

Solo
e|--------------------------------|
B|--------------------------------|
G|-----16-16-14---16-16-18b19b18--|  x4, the 4th time you bend to 19 
D|--14----------14----------------|      twice...
A|--------------------------------|
D|--------------------------------|

  4th time:  |------------------------------|
             |------------------------------|
             |----16-16-18-18b19b18b19b18~--|
             |--14--------------------------|
             |------------------------------|
             |------------------------------|

End solo (more or less)
e|-------------------------------------------------------------|
B|-------------------------------------------------------------|
G|-------------------------11-9--------------------------------|
D|--11/12-12-11-9-11-12-11--------11/12-12-11-9-11-12-11-9-----|
A|---------------------------------------------------------12--|
D|-------------------------------------------------------------|

Hope you like it. Sick song.

By.Mr.Hazard

            
            
Suggest correction
Creating personal tab
Creating personal tab
You can edit any tab online and save it as your Personal.

You can edit, replace or remove any tab part or add personal notes – all changes will be seen only by you.

Personal tabs can be accessed anytime from any device, even offline.
Learn more »
Give kudos to tab author, rate the tab!
1 2 3 4 5
comments
print report bad tab
guest
Wanna post a correction for this tab? Suggest correction