Oops, an error
Loading. Please wait.

We Cant Rewind tab

version 2
version 2

Whole song

Interactive

by Feeder
449 views 1 this week
no commentswrite comment
1 2 3 4 5
2 more votes to show rating
add to favorites
×
Save as Personal and add changes to this tab that will be seen only by you. Learn more ›
×
You can save this tab as Personal to edit and correct it or add notes. All changes will be seen only by you. Learn more »
launch autoscroll
font size
0
reset
how to read this tab
guitar tuner
edit
Autoscroll
slow
fast
+/-
esc
set tempo
stop
Band - FEEDER
Song - We can't rewind
Album - Echo Park
Tabbed by Lawrence

INFO

FEEDER are the best band in the world and if you don't listen
to thier music then you are crazy! ECHO PARK is their best album
and has the best songs e.g. Buck rogers, Seven days in the sun etc.
This is one of their best songs so give this tab a go.

I think this is around 95% correct, the chorus might be a
bit wrong in the way of chords and also the order might be
wrong but all in all it sound perfect to me - enjoy it!!!

The baseline for the rest of the song is the bottom note of
the chords (except the verse but i have told you that already)
but i can't be bothered to write it out so good luck.

A wammy bar is a metal bar sticking out that bends the notes
up and down.

R= 1 Beat of rest

VERSE 1

GUITAR
E|--2-2-2-2-2-2---3-3-3-3-3-3-----|
B|--3-3-3-3-3-3---3-3-3-3-3-3-----|
G|--2-2-2-2-2-2---0-0-0-0-0-0-----|
D|--------------------------------|
A|--------------------------------|
E|--------------------------------|

BASS (comes in half way through)
E|----------------------|
B|----------------------|
G|----------------------|
D|----------------------|
A|--5-5-----------------|
E|------5-5-7-7-3-3-----|

CHORUS

GUITAR
E|---------------------------------------|
B|---------------------------------------|
G|--7-7-7-7------------------------------|
D|--7-7-7-7-7-7-7-7-9-9-9-9-5-5-5-5------|
A|--5-5-5-5-7-7-7-7-9-9-9-9-5-5-5-5------|
E|----------5-5-5-5-7-7-7-7-3-3-3-3------|

E|---------------------------------------|
B|---------------------------------------|
G|--7-7-7-7------------------------------|
D|--7-7-7-7-7-7-7-7-4-4-4-4-5-5-5-5------|
A|--5-5-5-5-7-7-7-7-4-4-4-4-5-5-5-5------|
E|----------5-5-5-5-2-2-2-2-3-3-3-3------|


(The first time you play this you miss out the 
second two chords from each set of four, replace
with rests)
E.G.
E|-----------|
B|-----------|
G|--7-7-7-7--|
D|--7-7-7-7--|
A|--5-5-5-5--|
E|-----------|
ACTUALLY IS...
E|-----------|
B|-----------|
G|--7-7--R-R-|   
D|--7-7--R-R-|
A|--5-5--R-R-|
E|-----------|

BASS
E|---------------------------------------|
B|---------------------------------------|
G|---------------------------------------|
D|---------------------------------------|
A|--5-5-5-5------------------------------|
E|----------5-5-5-5-7-7-7-7-3-3-3-3------|

BRIDGE PART 1

E|--------------------------------------|
B|--------------------------------------|
G|------------------7-7-7-7-7-7-7-7-----|
D|--4-4-4-4-5-5-5-5-7-7-7-7-7-7-7-7-----|
A|--4-4-4-4-5-5-5-5-5-5-5-5-5-5-5-5-----|
E|--2-2-2-2-3-3-3-3---------------------|

PART 2

E|---------|------------------------------|
B|---------|------------------------------|
G|--7-7-7-7|------------------------------|
D|--7-7-7-7|-7-7-7-7-5-5-5-5-5-5-5-5------|
A|--5-5-5-5|-7-7-7-7-5-5-5-5-5-5-5-5------|
E|---------|-5-5-5-5-3-3-3-3-3-3-3-3------|
This is not|
played the |
first time |
after      |
bridge 1   |

HERE'S THE ORDER (I THINK):-
VERSE X8
CHORUS X4
VERSE X4
CHORUS X6
BRIDGE 1 X2
BRIDGE 2 X8
VERSE X2
CHORUS X4 (with 2nd guitar with wammy bar)
CHORUS X8

            
            
Suggest correction
Creating personal tab
Creating personal tab
You can edit any tab online and save it as your Personal.

You can edit, replace or remove any tab part or add personal notes – all changes will be seen only by you.

Personal tabs can be accessed anytime from any device, even offline.
Learn more »
Give kudos to tab author, rate the tab!
1 2 3 4 5
comments
print report bad tab
guest
Wanna post a correction for this tab? Suggest correction