Oops, an error
Loading. Please wait.

Animor tab

version 2
version 2

Whole song

201 views 1 this week
no commentswrite comment
1 2 3 4 5
3 more votes to show rating
add to favorites
×
Save as Personal and add changes to this tab that will be seen only by you. Learn more ›
×
You can save this tab as Personal to edit and correct it or add notes. All changes will be seen only by you. Learn more »
launch autoscroll
font size
0
reset
how to read this tab
guitar tuner
edit
Autoscroll
slow
fast
+/-
esc
set tempo
stop
Riff 1
e|----------------------------------------|
B|----------------------------------------|
G|--------5--------5--------5--------5----|
D|-----7--------7--------5--------5-------|
A|--5--------5--------3--------3----------|
E|----------------------------------------|

e|----------------------------------------|
B|----------------------------------------|
G|--------2--------2--------0--------0----|
D|-----3--------3--------2--------2-------|
A|--1--------1--------0--------0----------|
E|----------------------------------------|

Estrofa 1 (Tocamos el Riff 1 y luego la segunda
guitarra se une con los acordes)

Me pregunto si aun recordaras,

Porque estamos aquí en este lugar,

Tan lejos de los sueños y al azar,
                                 Dm
Quedamos en la lluvia y sin parar,
            C                 Bb
Comienza a caer la realidad,
             Am                 Dm
La lluvia no dejar ver lagrimas,
               C              Bb   Am
Y lo que no se irá de este lugar, jamás.

Coro:
Dm      C      Bb Am
Yo ya no puedo ya más,
Dm      C      Bb    Am
Odio este eterno final.

Estrofa 2 (Tocamos sólamente en Riff 1)

Tapamos con cristal la realidad,

Desesperadamente olvidar,

Pero el cristal es frágil, se verá,

Y pronto volverán a atormentar,

Viejos fantasmas que esperaran,

La hora exacta y nos atacaran,

La lluvia no se ira de este lugar, jamás.

Coro:
Dm      C      Bb Am
Yo ya no puedo ya más,
Dm      C      Bb    Am
Odio este eterno final.

Riff 2
e|----------------------------------------|
B|----------------------------------------|
G|------5-------5----------4-------4------|
D|----------------------------------------|
A|--3-3---3-3-3---3----2-2---2-2-2---2----|
E|----------------------------------------|

e|----------------------------------------|
B|----------------------------------------|
G|------9-------9-------9-------9---------|
D|----------------------------------------|
A|--7-7---7-7-7---7-7-7---7-7-7---7-------|
E|----------------------------------------|

Riff 3

e|----------------------------------------|
B|----------------------------------------|
G|--------5-------5---------4-------4-----|
D|------7---7---7---------5---5---5-------|
A|----7-------7---------5-------5---------|
E|--5-----------------3-------------------|

e|----------------------------------------|
B|----------------------------------------|
G|--------2-------2---------4-------4-----|
D|------3---3---3---------5---5---5-------|
A|----3-------3---------5-------5---------|
E|--1-----------------3-------------------|

e|----------------------------------------|
B|----------------------------------------|
G|--------5-------5---------4-------4-----|
D|------7---7---7---------5---5---5-------|
A|----7-------7---------5-------5---------|
E|--5-----------------3-------------------|

e|----------------------------------------|
B|----------------------------------------|
G|--------2-------2---4-4-4-4-4-4-4-4-----|
D|------3---3---3-----5-5-5-5-5-5-5-5-----|
A|----3-------3-------5-5-5-5-5-5-5-5-----|
E|--1-----------------3-3-3-3-3-3-3-3-----|


Bridge (Tocamos el Riff 2 x4 y luego el Riff 3)


Ya, no  puedo más x2

Ya, no siento más, Ya  no queda más
Am   Em7      C                     Am
Sigo aquí por ti donde me dejaste ayer
  Em7      C                              Am
Y aquí me quedare, no me queda más que hacer
     Em7   F  G  Am    Em7   F  G
Ya no siento más Ya no queda más

Final: Am,Em7,F,G

            
            
Suggest correction
Creating personal tab
Creating personal tab
You can edit any tab online and save it as your Personal.

You can edit, replace or remove any tab part or add personal notes – all changes will be seen only by you.

Personal tabs can be accessed anytime from any device, even offline.
Learn more »
Give kudos to tab author, rate the tab!
1 2 3 4 5
comments
print report bad tab
guest
Wanna post a correction for this tab? Suggest correction