Oops, an error
Loading. Please wait.

Solange Es Brennt Acoustic tab

484 views 21 this week
no commentswrite comment
1 2 3 4 5
2 more votes to show rating
add to favorites
×
Save as Personal and add changes to this tab that will be seen only by you. Learn more ›
×
You can save this tab as Personal to edit and correct it or add notes. All changes will be seen only by you. Learn more »
launch autoscroll
font size
0
reset
how to read this tab
guitar tuner
edit
Autoscroll
slow
fast
+/-
esc
set tempo
stop
Author
Difficulty
About this tab version
Version of the "Roter Bus #Session" (https://www.youtube.com/watch?v=NU6tPXqMedA). The version differs minimaly from the studio version (Verse II and Chorus II). Was this info helpful? Yes No
[Intro]
Bm D A G (4x)
Bm*

[Verse 1]
e|---------------|----------------|---------------|---------------------|
B|---------------|----------------|---------------|---------------------|
G|-----7-------7-|------4-------4-|-----6-------6-|-------11-------9----| (4x)
D|-9-9---9-9-9---|-5-5----5-5-5---|-7-7----7-7-7--|-12-12----12-11---11-|
A|---------------|----------------|---------------|---------------------|
E|---------------|----------------|---------------|---------------------|

Wir warten hier schon viel zu lang.
Geduldig sind wir angespannt.
Was weißt du schon, was wir fühlen?
In Leidenschaft bricht hier bald alles zusammen.

[Interlude]
e|-----------------|-----------------|-----------------|-------------------------|
B|-----------------|-----------------|-----------------|-------------------------|
G|-7-7-7-7-7-7-7-7-|-----------------|-6-6-6-6-6-6-6-6-|-------------------------| (2x)
D|-9-9-9-9-9-9-9-9-|-7-7-7-7-7-7-7-7-|-7-7-7-7-7-7-7-7-|-9--9--9--9--9--9--9--9--|
A|-----------------|-9-9-9-9-9-9-9-9-|-----------------|-10-10-10-10-10-10-10-10-|
E|-----------------|-----------------|-----------------|-------------------------|

[Verse 2]
e|---------------|----------------|---------------|---------------------|
B|---------------|----------------|---------------|---------------------|
G|-----7-------7-|------4-------4-|-----6-------6-|-------11-------9----| (4x)
D|-9-9---9-9-9---|-5-5----5-5-5---|-7-7----7-7-7--|-12-12----12-11---11-|
A|---------------|----------------|---------------|---------------------|
E|---------------|----------------|---------------|---------------------|

Wir haben Probleme, wer hat die nicht.
Wir werden uns ändern oder besser nicht.
Zusammen am stärksten, zusammen geschweißt
Gegen all das gerede von Glück und Zusammenhalt

[Pre-Chorus 1]
e|-----------------|-----------------|-----------------|-----------0-|
B|-----------------|-----------------|-----------------|-----------0-|
G|-7-7-7-7-7-7-7-7-|-----------------|-6-6-6-6-6-6-6-6-|-6-6-6-6-6-6-|
D|-9-9-9-9-9-9-9-9-|-7-7-7-7-7-7-7-7-|-7-7-7-7-7-7-7-7-|-7-7-7-7-7-7-|
A|-----------------|-9-9-9-9-9-9-9-9-|-----------------|-----------0-|
E|-----------------|-----------------|-----------------|-----------0-|

[Chorus 1]
Bm         D      A           G
Wir bilden Ketten, solange es brennt.
Bm         D                     A          G
Ich werde immer dran denken, wie schön es zusammen mit dir ist.
Bm         D      A           G
Wir bilden Ketten, solange es brennt.
Bm            D                 A          G
Es wird nicht einfach, wenn das Leben uns langsam zerfrisst.

e|---------------|----------------|---------------|---------------------|
B|---------------|----------------|---------------|---------------------|
G|-----7-------7-|------4-------4-|-----6-------6-|-------11-------9----| (2x)
D|-9-9---9-9-9---|-5-5----5-5-5---|-7-7----7-7-7--|-12-12----12-11---11-|
A|---------------|----------------|---------------|---------------------|
E|---------------|----------------|---------------|---------------------|

[Verse 3]
e|---------------|----------------|---------------|---------------------|
B|---------------|----------------|---------------|---------------------|
G|-----7-------7-|------4-------4-|-----6-------6-|-------11-------9----| (4x)
D|-9-9---9-9-9---|-5-5----5-5-5---|-7-7----7-7-7--|-12-12----12-11---11-|
A|---------------|----------------|---------------|---------------------|
E|---------------|----------------|---------------|---------------------|

Ich bin durcheinander, du bist es auch.
Wie geht´s jetzt weiter, wir lachen zu zweit.
Sie woll´n uns verwirr´n und treten dabei,
mit ganzer Härte auf all unsre Träume ein.

[Pre-Chorus 2]
e|-----------------|-----------------|-----------------|-------------------------|
B|-----------------|-----------------|-----------------|-------------------------|
G|-7-7-7-7-7-7-7-7-|-----------------|-6-6-6-6-6-6-6-6-|-------------------------| 
D|-9-9-9-9-9-9-9-9-|-7-7-7-7-7-7-7-7-|-7-7-7-7-7-7-7-7-|-9--9--9--9--9--9--9--9--|
A|-----------------|-9-9-9-9-9-9-9-9-|-----------------|-10-10-10-10-10-10-10-10-|
E|-----------------|-----------------|-----------------|-------------------------|

e|-----------------|-----------------|-----------------|-------------|
B|-----------------|-----------------|-----------------|-----------0-|
G|-7-7-7-7-7-7-7-7-|-----------------|-6-6-6-6-6-6-6-6-|-6-6-6-6-6-6-|
D|-9-9-9-9-9-9-9-9-|-7-7-7-7-7-7-7-7-|-7-7-7-7-7-7-7-7-|-7-7-7-7-7-7-|
A|-----------------|-9-9-9-9-9-9-9-9-|-----------------|-----------0-|
E|-----------------|-----------------|-----------------|-------------|

[Chorus 2]
Bm         D      A           G
Wir bilden Ketten, solange es brennt.
Bm         D                     A          G
Ich werde immer dran denken, wie schön es zusammen mit dir ist.
Bm         D      A           G
Wir bilden Ketten, solange es brennt.
Bm            D                 A          G
Es wird nicht einfach, wenn das Leben uns langsam zerfrisst.
Bm         D                      A                          
Wir bilden Ketten (wir bilden Ketten, 
           G                   Bm           
solange es brennt (solange es brennt).
         D                      A                          
Wir bilden Ketten (wir bilden Ketten), 
           G                            
solange es brennt.
           Bm           D          A           G
Solange es brennt, es brennt, wir bilden Ketten.
           Bm           D          A           G
Solange es brennt, es brennt, wir bilden Ketten.
           Bm      D A G
Solange es brennt.
           Bm      D A G
Solange es brennt.
           Bm*
Solange es brennt.


*****************************************

|* Strum once

*****************************************

            
            
Suggest correction
Creating personal tab
Creating personal tab
You can edit any tab online and save it as your Personal.

You can edit, replace or remove any tab part or add personal notes – all changes will be seen only by you.

Personal tabs can be accessed anytime from any device, even offline.
Learn more »
Give kudos to tab author, rate the tab!
1 2 3 4 5
comments
print report bad tab
guest
You may want to rate the tab now too:
select rating
Wanna post a correction for this tab? Suggest correction