Oops, an error
Loading. Please wait.

How Come You Never Go There chords

version 1
version 1

Whole song

by Feist
34,201 views 54 this week
2 commentsread comments
1 2 3 4 5
x 10
add to favorites
×
Save as Personal and add changes to this tab that will be seen only by you. Learn more ›
×
You can save this tab as Personal to edit and correct it or add notes. All changes will be seen only by you. Learn more »
launch autoscroll
font size
0
reset
transpose
0
reset
display chords
guitar tuner
edit
Autoscroll
slow
fast
+/-
esc
set tempo
stop
Author
Difficulty
Strumming
There is no strumming pattern for this song yet. and get +5 IQ
-------------------------------------------------------------------------------
                             How Come You Never Go There - Leslie Feist
-------------------------------------------------------------------------------
Tabbed by: Hannes Knobloch
Email: hk@hasacle.de

Tuning: Standard

[Chorus]
Am         Dm
whoa whoa whoa oh
Am         F
whoa whoa whoa oh
C                  F
How come you never go there
C                  Dm
How come I'm so alone there

[Chorus]
whoa whoa whoa oh
whoa whoa whoa oh
How come you never go there
How come I'm so alone there

[Verse]
I went up to your window
Lightly banging on the cymbals
a writ into the night
came storming to your house

My horse had worked the fields too long
And there had lost its innate calm
It's true enough for not at peace
But peace is never where it seems

Our love is not the light it was
When I walk inside the dark, I'm calm
Where we look for where it went
It's only echoes in the melody

[Chorus]
Am         Dm
whoa whoa whoa oh
Am         F
whoa whoa whoa oh
C                  F
How come you never go there
C                  Dm
How come I'm so alone there

[Solo]
e|-------------------------------|------------------------------|
B|--10--10-----10------(10)------|--10--10-----10---------------|
G|---------12-----12~--(12)-(12)-|---------12-----9--10--10--9--|
D|-------------------------------|-------------------12--12--10-|
A|-------------------------------|------------------------------|
E|-------------------------------|------------------------------|

e|-------------------|------------------------|
B|--8----------------|--8---------------------|
G|-----9--7----7--9--|-----9--7----7----7-----| x2
D|-----------10------|---------10-----10---7--|
A|-------------------|------------------------|
E|-------------------|------------------------|

[Verse]
We waste time on blame, I wreak revenge
We use energy and footjections
We're living proof we gotta let go
And stop looking through the lay-low

We carry on as if the time is through
You carry on as if i don't love you
And so we find the way to lie
To cover hard I have a doubt

The room's full eyes are empty
Like your letters never sent me
Your words are like a lasso
You're an instrumental tune

[Bridge]

[Chorus]
Am         Dm
whoa whoa whoa oh
Am         F
whoa whoa whoa oh
C                  F
How come you never go there
C                  Dm
How come I'm so alone there

[Chorus]
Am         Dm
whoa whoa whoa oh
Am         F
whoa whoa whoa oh
C                  F
How come you never go there
C                  Dm
How come I'm so alone there

(She plays this little riff with some variations along the chorus. It's mainly just 
the singing voice.)
e|-------------------|---------------------------|
B|--8----------------|--8------------------------|
G|-----9--7-----7--9-|-----9--7------------------|
D|---------10--7-----|---------10--7------7-10-7-|
A|-------------------|----------------10---------|
E|-------------------|---------------------------|

            
            
Suggest correction
Creating personal tab
Creating personal tab
You can edit any tab online and save it as your Personal.

You can edit, replace or remove any tab part or add personal notes – all changes will be seen only by you.

Personal tabs can be accessed anytime from any device, even offline.
Learn more »
comments
print report bad tab
2 comments total.
0 reply
SkywardStrings 56 Feb 22, 2014 10:15 AM

The chords are fantastic, but the lyrics are TOTALLY off

0 reply
dB999 30 Oct 13, 2015 07:26 AM

Last chord of the cycle is D, not Dm.

guest
You may want to rate the tab now too:
select rating
Wanna post a correction for this tab? Suggest correction