Oops, an error
Loading. Please wait.

Sorrow Tears And Blood tab

2,286 views 3 this week
1 commentread comment
1 2 3 4 5
3 more votes to show rating
add to favorites
×
Save as Personal and add changes to this tab that will be seen only by you. Learn more ›
×
You can save this tab as Personal to edit and correct it or add notes. All changes will be seen only by you. Learn more »
launch autoscroll
font size
0
reset
how to read this tab
guitar tuner
edit
Autoscroll
slow
fast
+/-
esc
set tempo
stop
Author
Fela Anikulapo Kuti - Sorrow  Tears and Blood

----------------------------------------------|
----------------------------------------------|
--3-------------------------------------------| Play this all the song, and
-5-5-3--------3-5-----------------------------|         GROOVE !
-------6--3-6-----6-3-------------------------|
----------------------------------------------|

            
            
Suggest correction
Creating personal tab
Creating personal tab
You can edit any tab online and save it as your Personal.

You can edit, replace or remove any tab part or add personal notes – all changes will be seen only by you.

Personal tabs can be accessed anytime from any device, even offline.
Learn more »
Give kudos to tab author, rate the tab!
1 2 3 4 5
comments
print report bad tab
1 comment total.
0 reply
Skadettle 334 May 08, 2009 04:16 PM

The notes are right, but I find it easier to play it like:

e|-------------------------|
B|-------------------------|
G|-0-3-0-------------0-----|
D|-------3-1-----1-3---1---|
A|-------------3-----------|
E|-------------------------|

If you keep your index finger on the D# (1 on the D string), all you have to do is move your ring finger to the right spots and hit the right strings.

guest
You may want to rate the tab now too:
select rating
Wanna post a correction for this tab? Suggest correction