Oops, an error
Loading. Please wait.

Una Mujer Casi Perfecta tab

version 1
version 1

Whole song

by Felo
41 views 1 this week
no commentswrite comment
1 2 3 4 5
3 more votes to show rating
add to favorites
×
Save as Personal and add changes to this tab that will be seen only by you. Learn more ›
×
You can save this tab as Personal to edit and correct it or add notes. All changes will be seen only by you. Learn more »
launch autoscroll
font size
0
reset
how to read this tab
guitar tuner
edit
Autoscroll
slow
fast
+/-
esc
set tempo
stop
Aqui tiene la cancion entera en guitarra, del mismo modo que la toca Felo

INTRO

     E  Q    E  E  Q.        Q    Q    E  Q    E     E  Q    E  E  Q    E
E||-----5----5-----5------|--5----5-------4----5--|-----5----5-----5-------
B||-----5----5-----5------|--4----4-------3----5--|-----5----5-----5-------
G||-----5----5-----5------|--5----5-------4----5--|-----5----5-----5-------
D||-----5----5-----5------|--4----4-------3----5--|-----5----5-----5-------
A||--0----------0---------|--0---------0----------|--0----------0----------
E||-----------------------|-----------------------|------------------------


  Q    Q    E  Q    E     E  Q    E  E  Q    E     Q    Q    E  Q    E
--8----8-------7----5--|-----5----5-----5-------|--5----5-------4----5--|
--7----7-------6----5--|-----5----5-----5-------|--4----4-------3----5--|
--8----8-------7----5--|-----5----5-----5-------|--5----5-------4----5--|
--7----7-------6----5--|-----5----5-----5-------|--4----4-------3----5--|
--0---------0----------|--0----------0----------|--0---------0----------|
-----------------------|------------------------|-----------------------|


  E  Q    E  E  Q    E     Q    Q    E  Q    E     E  Q    E  E  Q    E
-----5----5-----5-------|--8----8-------7----5--|-----5----5-----5-------|
-----5----5-----5-------|--7----7-------6----5--|-----5----5-----5-------|
-----5----5-----5-------|--8----8-------7----5--|-----5----5-----5-------|
-----5----5-----5-------|--7----7-------6----5--|-----5----5-----5-------|
--0----------0----------|--0---------0----------|--0----------0----------|
------------------------|-----------------------|------------------------|


  Q     Q    E  Q     E     E  Q    E  E  Q    E     H        H
-------------------------|-----0----0-----0-------|--1--------0--------|
--4-----4-------3-----1--|-----1----1-----1-------|--1--------0--------|
--5-----5-------4-----2--|-----2----2-----2-------|--2--------1--------|
--4-----4-------3-----2--|-----1----1-----1-------|--------------------|
--0----------0-----------|--0----------0----------|--------------------|
-------------------------|------------------------|--1--------0--------|

CORO:
LAm        FA   MI7 LAm      FA  MI7          FA      MI7
Tu eres la mujer    perfecta... casi perfecta para mi

ESTROFAS:
LAm        FA         MI7 LAm
yo te cambiaria tan solo algunos sencillos detalles
FA  MI7 LAm           FA* MI7
    de tu cuerpo... por ejemplo
        FA         MI7  LAm                       FA    MI7
te achicaria esas manos enormes que hacen que encuentres
 LAm      FA          MI7
  pequeño lo que tocas
LAm                  FA*          MI7
y tu sabes que eso a mi me deprime

Se repiten los mismos acordes durante las demas estrofas excepto la final.
En la ultima estrofa se toca la intro y se termina de este modo:

                   MI7            Caug
...y tu me gustas asi tal como eres


Acordes:
     LAm FA  FA* E7  Caug
E||--0- -1- -1- -0-  -4---
B||--1- -1- -1- -3-  -5---
G||--2- -2- -2- -1-  -5---
D||--2- -0- -0- -2-  -6---
A||--0-- --  -- -2-  -----
E||----- --  1- -0-  -----

            
            
Suggest correction
Creating personal tab
Creating personal tab
You can edit any tab online and save it as your Personal.

You can edit, replace or remove any tab part or add personal notes – all changes will be seen only by you.

Personal tabs can be accessed anytime from any device, even offline.
Learn more »
Give kudos to tab author, rate the tab!
1 2 3 4 5
comments
print report bad tab
guest
Wanna post a correction for this tab? Suggest correction