Oops, an error
Loading. Please wait.

A Song For Everyone bass

version 2
version 2

Whole song

235 views 1 this week
1 commentread comment
1 2 3 4 5
2 more votes to show rating
add to favorites
×
Save as Personal and add changes to this tab that will be seen only by you. Learn more ›
×
You can save this tab as Personal to edit and correct it or add notes. All changes will be seen only by you. Learn more »
launch autoscroll
font size
0
reset
guitar tuner
edit
Autoscroll
slow
fast
+/-
esc
set tempo
stop
------------------------------------------------------------------------------------------------
A SONG FOR EVERYONE – Fenix Tx

Tabbed by:Skiner11

Tuning:Eb Ab Db Gb

Gb|----------------------------------------------------------------|
Db|----------------------------------------------------------------|  INTRO 
Ab|----------------4-------2-----------------------4-------2-------|
Eb|0--------------(9)-----(7)--------0------------(9)-----(7)------|
        
Gb|----------------------------------------------------------------|
Db|----------------------------------------------------------------| 
Ab|----------------44444444222-2-22----------------44444444222-22-2|
Eb|0000000000000000----------------0000000000000000----------------|

Gb|----------------------------------------------------------------|
Db|--------------------------------------------------------------32|  VERSE
Ab|44444444222222220000000022222222444444442222222200000000222224--|
Eb|----------------------------------------------------------------|

Gb|----------------------------------------------------------------|
Db|----------------------------------------------------------------|  
Ab|--------000000004444444422222222--------0000000044444444222-2-22|
Eb|00000000------------------------00000000------------------------|

Gb|----------------------------------------------------------------|
Db|----------------------------------------------------------------| 
Ab|--------000000004444444422222222--------000000004444444422222222|
Eb|00000000------------------------00000000------------------------|

Gb|-------------------------------|
Db|-------------------------------| 2x                                CHORUS 
Ab|0-0-0--------------------------|                  
Eb|--------4---2---00------00-----|
   1 @ 2 @ 3 @ 4 @ 1   2   3   4 
Gb|------------------------------------------------|
Db|------------------------------------------------|                  
Ab|00000000222222224444444444444242000000002^^^^^^^|
Eb|------------------------------------------------|

Gb|--------------------------------|
Db|--------------------------------|  6x                              VERSE
Ab|--------000000004444444422222222|
Eb|00000000------------------------|



  CHORUS (repeat previous chorus arrangement, sustaining your Bb note into the Bridge)



Gb|--------------------------------|
Db|2222444422226666----------------|  6x (4x alone,2x).  BRIDGE
Ab|----------------444444442222----|
Eb|----------------------------0000|

Gb|--------------------------------|
Db|--------------------------------|. 4x
Ab|----------------4444444422222222|
Eb|0000222200004444----------------|

Gb|---------------------------------------------------------------|
Db|-------2---------------2---------------2-----------------------| OUTRO
Ab|4444445-22222---4444445-22222---4444445-22222------------------|
Eb|-------------420-------------420-------------420----0^-0^-0^-0^|




| () Alternate position
| ^  Sustain the note

            
            
Suggest correction
Creating personal tab
Creating personal tab
You can edit any tab online and save it as your Personal.

You can edit, replace or remove any tab part or add personal notes – all changes will be seen only by you.

Personal tabs can be accessed anytime from any device, even offline.
Learn more »
Give kudos to tab author, rate the tab!
1 2 3 4 5
comments
print report bad tab
1 comment total.
0 reply
sixstringlove2000 10 Dec 21, 2015 03:33 AM

Best bass tab for this song that is out there. Thank you for tabbing it a half step down.

guest
You may want to rate the tab now too:
select rating
Wanna post a correction for this tab? Suggest correction