Oops, an error
Loading. Please wait.
We have Chord Pro version of Big Girls Dont Cry.
It's the closest thing you can get to the original song and it has interactive parts. Check out the tab »
×
by Fergie
302,161 views 45 this week
37 commentsread comments
1 2 3 4 5
x 51
add to favorites
×
Save as Personal and add changes to this tab that will be seen only by you. Learn more ›
×
You can save this tab as Personal to edit and correct it or add notes. All changes will be seen only by you. Learn more »
launch autoscroll
font size
0
reset
how to read this tab
guitar tuner
edit
Autoscroll
slow
fast
+/-
esc
set tempo
stop
Author
Difficulty
Tabbed By: Manilette Ann P. Fernandez "Maan"

**This is another one of my favorite songs..actually all I've been submitting here are
favorite. I know this isn't 100% correct (strumming parts), but I guess you could say
really close. Listen to the song for the timing, plucking and strumming. There are 2 
playing in this song but I'm only going to do one (lead guitar).

**This goes out to the Besties (Mark Aquino, Ralph Malate, Jeb Aquino), and to the Al'a XYZ.. :)

[Chords Used]
   Em7 C9   G   D  Am
e|--3---3---3---2---0--|
B|--3---3---3---3---1--|
G|--0---0---0---2---2--|
D|--2---2---0-------2--|
A|--2---3---2----------|
E|----------3----------|

Tuning: Standard

[Intro]
e|-------------------------------------- / \
B|--3T-3T-3T-----3T-3T-3T--------------- /  \
G|---A--A--A-----0A--A--A--|   \ Repeat- / x2
D|---P--P--P------P--P--P--|  ---------- /
A|--2--3--0----2----3--0---| ----------- /
E|-------------------------|------------ /

Da Da Da Da

[Verse 1]
e|-------------------------------------- / \
B|--3T-3T-3T-----3T-3T-3T--------------- /  \
G|---A--A--A-----0A--A--A--|   \ Repeat- / x8
D|---P--P--P------P--P--P--|  ---------- /
A|--2--3--0----2----3--0---| ----------- /
E|-------------------------|------------ /

The smell of your skin lingers on me now
Your probably on your flight back to your home town
I need some shelter of my own protection baby
To be with myself instead of calamity

e|-----| \
B|--3--|  \
G|-----|   \ Let it ring
D|-----|   /
A|--0--|  /
E|-----| /

Peace, Serenity

[Chorus]
C9               Em7            D
I hope you know, I hope you know
D
That this has nothing to do with you
C9               Em7            D
It's personal, Myself and I
Am
We've got some straightenin' out to do
Em7           G                                         D
And I'm gonna miss you like a child misses their blanket
                    Em7
But I've got to get a move on with my life
C9              G             D (let it ring)
It's time to be a big girl now
(Mute)
And big girls don't cry

e|-------------------------------------- / \
B|--3T-3T-3T-----3T-3T-3T--------------- /  \
G|---A--A--A-----0A--A--A--|   \ Repeat- / x2
D|---P--P--P------P--P--P--|  ---------- /
A|--2--3--0----2----3--0---| ----------- /
E|-------------------------|------------ /
Don't cry
Don't cry
Don't cry

[Verse 2]
e|-------------------------------------- / \
B|--3T-3T-3T-----3T-3T-3T--------------- /  \
G|---A--A--A-----0A--A--A--|   \ Repeat- / x8
D|---P--P--P------P--P--P--|  ---------- /
A|--2--3--0----2----3--0---| ----------- /
E|-------------------------|------------ /

The path that I'm walking
I must go alone
I must take the baby steps until I'm full grown
Fairytales don't always have a happy ending, do they
And I foresee the dark ahead if I stay

(Repeat Chorus)

[Verse 3]
C9              Em7                          G
Like the little schoolmate in the school yard
G
We'll play jacks and uno cards
C9           Em7             G
I'll be your best friend and you'll be mine
G
Valentine
C9           Em7                        G
Yes, you can hold my hand if you want to
G                              C9
'Cause I want to hold yours too
         Em7                  G
We'll be playmates and lovers and share our secret worlds
Am        Em7            D
But it's time for me to go home
Am                 Em7
It's getting late, dark outside
D        Em7                        C9
I need to be with myself instead of calamity
D
Peace, Serenity

(Repeat Chorus)

e|-------------------------|
B|--3T-3T-3T-----3T-3T-3T--|
G|---A--A--A-----0A--A--A--|
D|---P--P--P------P--P--P--|
A|--2--3--0----2----3--0---|
E|-------------------------|

La Da Da Da Da Da

e|------------|
B|--3T-3T-3T--|
G|---A--A--A--|
D|---P--P--P--|
A|--2--3--0---|
E|------------|

            
            
Suggest correction
Creating personal tab
Creating personal tab
You can edit any tab online and save it as your Personal.

You can edit, replace or remove any tab part or add personal notes – all changes will be seen only by you.

Personal tabs can be accessed anytime from any device, even offline.
Learn more »
comments
print report bad tab
37 comments total. Showing first comments.
0 reply
DzhAnKii 70 May 22, 2007 02:37 AM

e|-------------------------------------- / \
B|--3T-3T-3T-----3T-3T-3T--------------- / \
G|---A--A--A-----0A--A--A--| \ Repeat- / x2
D|---P--P--P------P--P--P--| ---------- /
A|--2--3--0----2----3--0---| ----------- /
E|-------------------------|------------ /

could someone plz explain me what does it mean? ;/ i dont understand

+1 reply
ctc803 21 May 22, 2007 01:29 PM

it says T-A-P tap. you tap the strings after you play the 3 and 2

0 reply
musicforlife21 10 Jun 14, 2007 05:39 PM

awesome tab!!!!!!!

guest
You may want to rate the tab now too:
select rating
Wanna post a correction for this tab? Suggest correction