Oops, an error
Loading. Please wait.

A La Piramide Del Sol tab

version 1
version 1

Whole song

17 views 3 this week
no commentswrite comment
1 2 3 4 5
3 more votes to show rating
add to favorites
×
Save as Personal and add changes to this tab that will be seen only by you. Learn more ›
×
You can save this tab as Personal to edit and correct it or add notes. All changes will be seen only by you. Learn more »
launch autoscroll
font size
0
reset
how to read this tab
guitar tuner
edit
Autoscroll
slow
fast
+/-
esc
set tempo
stop
G A Em G A G A G A D/A*

Intro: D A G (x4)

3|---------------------------------------4/6------------------|
2|--------------------------------7-5--------5-7-5-7/9--------|
1|-/12--11--9--7----5-4-5---4^5^4----------------------7--9-7-|

3|---------------------------------------------------9-|
2|------------------------10-10-10/12-12--9-7-5-5/12---|
1|--14-12-11-11/9-9-7-7--------------------------------|

D                            A                          G
Con la estela inagotable de aquel que siempre ha sido camino
      D                       A                      G             A
tu templanza quien supiera buscarla en la utananza vibrante de humedad
        B#m          F#m             G                     D       G
si bien ha pasado el hombre se ha quedado el tiempo en el recuerdo
                      A             B#m   F#m
que va enredando los hechos con tu faz
      G            A      V2-V4
no me fueras más remota                      RIFF1.
       D     D/C#  D/B    A      G   A V2-V4 D    A G D A G
si antecedes las memorias de tu edad, de tu edad.

RIFF1:
3|-9-----9-------9-------------------|-------------------------/6----------------------4---|
2|--10-9----12-9----9-10-12-12/14-12-|---------12-10-10-9-7-5-----5-7-9------------7-5---5-|
1|-----------------------------------|-12-11-9--------------------------5-4--7-5-4---------|

Con la fresca sobriedad de antaño y reflexión del alma
tu pesado pesar de roca se ha jurado nostalgia años atrás
con tanto ayer en tus tapias ancestrales y polvosas
que de noche cuentan murmullos a la paz 
cuando el campo está en silencio 
tu lamento lleva el viento adonde va. 
donde va.  A G D

RIFF2:
3|---------------------------------------4/6------------------||-/11--------------------|
2|--------------------------------7-5--------5-7-5-7/9--------||-----10-12-14-12-9-/7-5-|
1|-/12--11--9--7----5-4-5---4^5^4----------------------7--9-7-||------------------------|

RIFF2.
SIGUE LA SECUENCIA D A G
'Di coloso viejo y triste
los secretos del silencio
cuando el viento lleva eterno
los suspiros del perpetuo
condenado a soledades
cuando busca entre tus quicios
hoy vacíos y destierros
y olvidados por condena de lo reluciente y nuevo
yo te invoco y tu pasado
a ser la flor de mi verso
por la noche y la tiniebla,
por la estrella y el sendero'.

 D                             A
Fue cuando el tiempo bajara cantando
      G
y rasgando las lunas al sol de epopeyas
y arrojó leyendas como si sembrara
maíz en semillas y etapas en eras
ligando proezas al cinto celeste
de muerte a la vida de alivio a las pestes,
tú viste al hombre tu viste la muerte                          D A G   D A C-C/B-C/A-G* D A G (D A Gx3) D
miraste al tiempo de cinto celeste, miraste...,miraste...,miraste.  [Mirastex16]

Acordes:
D/A      000232
D/A*      000232 1|-0-2-3-2-|
D/C#      040232
D/B      020232

D      000232 IV0
A      002220 V0-V4-IV2
G      320033 VI3-IV0-VI3-IV0


C      332010 V3
C/B      020010 V2
C/A      002010 V0
G*      200232 VI3 VI0-VI2-V0

Al principio juegas con las cuerdas

En los 'miraste', los primeros tres son largos, los siguientes 16 son rápidos y a voz turnada;
esto es que se turnan los 'miraste'.

Doy gracias al único tab que especifico el capo, sin él no me hubiese dado cuenta que lo llevaba.

======================================================================================================

Ahora: Aquí está el tab en guitarra del instrumento del inicio, 'quena' o no me acuerdo como se llama,
pero el caso es que aquí está: (NOTA: si vas a tocar ésto; va sin capo)

Inicio:

4|-------------------------------------------------------------------------------------4/7-|
3|--------------2---------------------2-6/0~-------------------------2-----4h6h4-2h4h2-----|
2|-0------0h2h0---2~-------2----0h2h0---------2----------2-----0h2h0---2~------------------|
1|---2-0~------------0h2h0---0------------------2~-0h2h0---0~------------------------------|

4|---------------------------------------------------------------------------------------------|
3|-------------------2--------------------------------------------2-----2----------------------|
2|-2-------------5-2---2~----------------2-------------2----0h2h0---2~----2---------------2----|
1|---2-0~--2h4h2-----------0h2h0-2h4h2-0---0~--2h4h2-0---0~-----------------2-0~--2h4h2-0---2~-|

4|---------------------------------------|
3|-----------------------------2---------|
2|------2h5h2-5~-2h5-----0h2h0---2~------|
1|2h4h2--------------2-0------------2-0~-|

Parte Rápida:

4|--------------------------------------------------------------------|
3|------------------------------2-----------2--------------------2----|
2|-0-2----------------2-----0h2---2----------2--------2----0h2h0---2~-|
1|-----0-2-0~-2h4h2-0---0~----------0-2-0~----0-0h2h0---0~------------|

===========================================================================================================

Al Final de la canción:

3|------------------------------2-----------------------------------2-------------------------------------|
2|---0---------------0----0h2h0---0-2--------------------0----0h2h0---2~-----------2-----------------0----|
1|-4---0-0h2h4h5-4-0---0~-------------0-2-0~-2h4h2-0-2-0---0~------------0-2-4-2-0----0-2-4-2-0--2-0---0~-|

3|-------2---------------2--------------------------------|
2|-0h2h0---2--------2------0-2-----------------2----------|
1|------------0-2-0---0~-------0-2-0~--2h4h2-0---0-2-0~~~-|

            
            
Suggest correction
Creating personal tab
Creating personal tab
You can edit any tab online and save it as your Personal.

You can edit, replace or remove any tab part or add personal notes – all changes will be seen only by you.

Personal tabs can be accessed anytime from any device, even offline.
Learn more »
Give kudos to tab author, rate the tab!
1 2 3 4 5
comments
print report bad tab
guest
Wanna post a correction for this tab? Suggest correction