Oops, an error
Loading. Please wait.

A La Piramide Del Sol tab

version 3
version 3

Whole song

28 views 1 this week
no commentswrite comment
1 2 3 4 5
3 more votes to show rating
add to favorites
×
Save as Personal and add changes to this tab that will be seen only by you. Learn more ›
×
You can save this tab as Personal to edit and correct it or add notes. All changes will be seen only by you. Learn more »
launch autoscroll
font size
0
reset
how to read this tab
guitar tuner
edit
Autoscroll
slow
fast
+/-
esc
set tempo
stop
capo en el segundo traste.
 
H=hammer
P=pull
/=slide
s=legato slide
+=armónicos
()=rasgueo
B=bend
 
Gtr 1=Fernando Delgadillo
Gtr 2=Gonzalo Ceja
 
Gtr 1
1|---0s2-0-(0)---|----2-----|--------|-----|---------------(2)-2-------2-------2--|
2|---3---3-(3)---|------3---|------3-|-----|----3------3---(3)-----------3---3-3--|
3|---------(2)---|----------|----2---|---0-|--0------0-----(0)--------------0-----|
4|-0-------------|----------|--0-----|-2---|------0-----------------------0-------|
5|---------------|--0-------|--------|-----|--------------------------------------|
6|---------------|----------|--------|-----|-3---------------------3--------------|
 
Gtr 2
1|-12-11-9-7-5-4-5-5/3-2-0----------2---2-4-5-4-12-11-9-9/7-5-5-4-4-3/5-5-2-2-0----3/5--------|
2|-------------------------------0----0-----------------------------------------3-------5/1---|
3|--------------------------2/4---------------------------------------------------------------|
 
 
1|---0s2-0-(0)---|----2-----|--------|-----|---------------(2)-2-------2-------2--|
2|---3---3-(3)---|------3---|------3-|-----|----3------3---(3)-----------3---3-3--|
3|---------(2)---|----------|----2---|---0-|--0------0-----(0)--------------0-----|
4|-0-------------|----------|--0-----|-2---|------0-----------------------0-------|
5|---------------|--0-------|--------|-----|--------------------------------------|
6|---------------|----------|--------|-----|-3---------------------3--------------|
                                                                            Con LA 
1|---0s2-0-(0)---|----2-----|--------|-----|---------------(2)-2-------2-------2--|
2|---3---3-(3)---|------3---|------3-|-----|----3------3---(3)-----------3---3-3--|
3|---------(2)---|----------|----2---|---0-|--0------0-----(0)--------------0-----|
4|-0-------------|----------|--0-----|-2---|------0-----------------------0-------|
5|---------------|--0-------|--------|-----|--------------------------------------|
6|---------------|----------|--------|-----|-3---------------------3--------------|
   esperainagotable,deaquelquesiemprehasidocamino                             tutem 
1|---0s2-0-(0)---|----2-----|--------|-----|---------------(2)-----0---0----------|
2|---3---3-(3)---|------3---|------3-|-----|----3------3---(3)------------3---3b--|
3|---------(2)---|----------|----2---|---0-|--0------0-----(0)-------2------------| 
4|-0-------------|----------|--0-----|-2---|------0-------------------------------|
5|---------------|--0-------|--------|-----|--------------------0-----------------|
6|---------------|----------|--------|-----|-3------------------------------------|
 blanzaquien supierabuscarlaylaeutananciavibrante  de    humedad.
 
1|-------------2------(2)---------2---2--(2)--------2--------(2)--------0------(0)|
2|----------3------3--(3)------2------2--(2)------3------3---(3)------3------3-(3)|
3|--------4------4----(4)----2------2----(2)----0------0-----(0)----2------2---(2)|
4|--------------------------------------------------------------------------------|
5|-0-h1p2---------------------------------------------------------0---------------|
6|--------------------------2-----------------3-----------------------------------|
  Sibienha pasado      el hombre,   se ha quedado  el  tiempo  en el recuerdo.
 
1|--2----------(2)--------0------(0)--------2-----(2)----2-------2-(2)------------|
2|----3------3-(3)------3------3-(3)------3-----3-(3)------3---3---(3)------------|
3|--------0----(0)----2------2---(2)----4-----4---(4)--------4-----(4)------------|
4|------0-------------------------------------------------------------------------|
5|------------------0-----------------2----------------2--------------------------|
6|-3------------------------------------------------------------------------------|
   Quevaenredandoloshechos  con  tu  fa-aa-aa-aa-aaz
 
1|------2-----(2)----2------2-(2)-----0-0-(0)-------------------------0-------2---|
2|-----2----2-(2)------2---2--(2)-----3-3-(3)------3-----3----3------3-------2----|
3|---2----2---(2)--------2----(2)---------(2)----0-----0------------2------2------|
4|----------------------------------------------------------------0---------------|
5|---------------------------------------------0------2-----4-------------4-------|
6|-2---------------2----------------3---------------------------------------------|
                         No me fuerasmas    remota         si antecedes   las       
 
1|-------------0------0-0(0)-0-------------------------|
2|-----3-------3------3-3(3)----------2-------3-----2--|
3|---4-------0-----------(2)--------2-------4----------|
4|-----------------------------------------------------|
5|-2------0-----------------------0-------2-------4----|
6|-----------------3-----------------------------------|
   memorias de tuedad                     detu edad.
 
Intro
 
1|---0s2-0-(0)---|----2-----|--------|-----|---------------(2)-2-------2-------2--|
2|---3---3-(3)---|------3---|------3-|-----|----3------3---(3)-----------3---3-3--|
3|---------(2)---|----------|----2---|---0-|--0------0-----(0)--------------0-----|
4|-0-------------|----------|--0-----|-2---|------0-----------------------0-------|
5|---------------|--0-------|--------|-----|--------------------------------------|
6|---------------|----------|--------|-----|-3---------------------3--------------|
                                                                            Con LA 
1|---0s2-0-(0)---|----2-----|--------|-----|---------------(2)-2-------2-------2--|
2|---3---3-(3)---|------3---|------3-|-----|----3------3---(3)-----------3---3-3--|
3|---------(2)---|----------|----2---|---0-|--0------0-----(0)--------------0-----|
4|-0-------------|----------|--0-----|-2---|------0-----------------------0-------|
5|---------------|--0-------|--------|-----|--------------------------------------|
6|---------------|----------|--------|-----|-3---------------------3--------------|
   frescasobriedad,deantañoyreflexiondelalma                             tupes 
1|---0s2-0-(0)---|----2-----|--------|-----|---------------(2)-----0---0----------|
2|---3---3-(3)---|------3---|------3-|-----|----3------3---(3)------------3---3b--|
3|---------(2)---|----------|----2---|---0-|--0------0-----(0)-------2------------| 
4|-0-------------|----------|--0-----|-2---|------0-------------------------------|
5|---------------|--0-------|--------|-----|--------------------0-----------------|
6|---------------|----------|--------|-----|-3------------------------------------|
 adoapesarderocasseacuradonostalgiaañosatras
 
1|-------------2------(2)---------2---2--(2)--------2--------(2)--------0------(0)|
2|----------3------3--(3)------2------2--(2)------3------3---(3)------3------3-(3)|
3|--------4------4----(4)----2------2----(2)----0------0-----(0)----2------2---(2)|
4|--------------------------------------------------------------------------------|
5|-0-h1p2---------------------------------------------------------0---------------|
6|--------------------------2-----------------3-----------------------------------|
  contantoayer      entus   tapias      ancestralesy           polvosasque
 
1|--2----------(2)--------0------(0)--------2-----(2)----2-------2-(2)------------|
2|----3------3-(3)------3------3-(3)------3-----3-(3)------3---3---(3)------------|
3|--------0----(0)----2------2---(2)----4-----4---(4)--------4-----(4)------------|
4|------0-------------------------------------------------------------------------|
5|------------------0-----------------2----------------2--------------------------|
6|-3------------------------------------------------------------------------------|
   denochecuentanmurmullos A  LA  pa-aa-aa-aa-aaz
 
1|------2-----(2)----2------2-(2)-----0-0-(0)-------------------------0-------2---|
2|-----2----2-(2)------2---2--(2)-----3-3-(3)------3-----3----3------3-------2----|
3|---2----2---(2)--------2----(2)---------(2)----0-----0------------2------2------|
4|----------------------------------------------------------------0---------------|
5|---------------------------------------------0------2-----4-------------4-------|
6|-2---------------2----------------3---------------------------------------------|
                         Dondeel campoestaencilencio        tu lamento lleva       
 
1|-------------0------0-0(0)-0-------------------------|
2|-----3-------3------3-3(3)----------2-------3-----2--|
3|---4-------0-----------(2)--------2-------4----------|
4|-----------------------------------------------------|
5|-2------0-----------------------0-------2-------4----|
6|-----------------3-----------------------------------|
   elvientoadondeva                     donde va.
 
1|---0s2-0-(0)---|----2-----|--------|-----|---------------(2)-2-------2-------2--|
2|---3---3-(3)---|------3---|------3-|-----|----3------3---(3)-----------3---3-3--|
3|---------(2)---|----------|----2---|---0-|--0------0-----(0)--------------0-----|
4|-0-------------|----------|--0-----|-2---|------0-----------------------0-------|
5|---------------|--0-------|--------|-----|--------------------------------------|
6|---------------|----------|--------|-----|-3---------------------3--------------|
 
1|---0s2-0-(0)---|----2-----|--------|-----|---------------(2)-2-------2-------2--|
2|---3---3-(3)---|------3---|------3-|-----|----3------3---(3)-----------3---3-3--|
3|---------(2)---|----------|----2---|---0-|--0------0-----(0)--------------0-----|
4|-0-------------|----------|--0-----|-2---|------0-----------------------0-------|
5|---------------|--0-------|--------|-----|--------------------------------------|
6|---------------|----------|--------|-----|-3---------------------3--------------|
    Mi coloso,    viejo y     triste  los secretos      del     silencio
 
1|---0s2-0-(0)---|----2-----|--------|-----|---------------(2)-2-------2-------2--|
2|---3---3-(3)---|------3---|------3-|-----|----3------3---(3)-----------3---3-3--|
3|---------(2)---|----------|----2---|---0-|--0------0-----(0)--------------0-----|
4|-0-------------|----------|--0-----|-2---|------0-----------------------0-------|
5|---------------|--0-------|--------|-----|--------------------------------------|
6|---------------|----------|--------|-----|-3---------------------3--------------|
  cuandoelvientollevaeternolossuspirosdelperpetuo,  condenado a soledades.
 
1|---0s2-0-(0)---|----2-----|--------|-----|---------------(2)-2-------2-------2--|
2|---3---3-(3)---|------3---|------3-|-----|----3------3---(3)-----------3---3-3--|
3|---------(2)---|----------|----2---|---0-|--0------0-----(0)--------------0-----|
4|-0-------------|----------|--0-----|-2---|------0-----------------------0-------|
5|---------------|--0-------|--------|-----|--------------------------------------|
6|---------------|----------|--------|-----|-3---------------------3--------------|
   Cuandobuscoentretusquicios, Hoy     vaciosydestierrosyolvida dosyolvidadospor
 
1|---0s2-0-(0)---|----2-----|--------|-----|---------------(2)-2-------2-------2--|
2|---3---3-(3)---|------3---|------3-|-----|----3------3---(3)-----------3---3-3--|
3|---------(2)---|----------|----2---|---0-|--0------0-----(0)--------------0-----|
4|-0-------------|----------|--0-----|-2---|------0-----------------------0-------|
5|---------------|--0-------|--------|-----|--------------------------------------|
6|---------------|----------|--------|-----|-3---------------------3--------------|                            
condena  de lo relucienteynuevo,yo te invoco y tu pasadoa ser la flor de mi verso
 
1|---0s2-0-(0)---|----2-----|--------|-----|---------------(2)-2-------2-------2--|
2|---3---3-(3)---|------3---|------3-|-----|----3------3---(3)-----------3---3-3--|
3|---------(2)---|----------|----2---|---0-|--0------0-----(0)--------------0-----|
4|-0-------------|----------|--0-----|-2---|------0-----------------------0-------|
5|---------------|--0-------|--------|-----|--------------------------------------|
6|---------------|----------|--------|-----|-3---------------------3--------------|
      porla nocheylatiniebla,                                     porlaestrellayel 
 
1|---0s2-0-(0)---|----2-----|--------|-----|---------------(2)-2-------2-------2--|
2|---3---3-(3)---|------3---|------3-|-----|----3------3---(3)-----------3---3-3--|
3|---------(2)---|----------|----2---|---0-|--0------0-----(0)--------------0-----|
4|-0-------------|----------|--0-----|-2---|------0-----------------------0-------|
5|---------------|--0-------|--------|-----|--------------------------------------|
6|---------------|----------|--------|-----|-3---------------------3--------------|
sendero.
 
1|---0s2-0-(0)---|----2-----|--------|-----|---------------(2)-2-------2-------2--|
2|---3---3-(3)---|------3---|------3-|-----|----3------3---(3)-----------3---3-3--|
3|---------(2)---|----------|----2---|---0-|--0------0-----(0)--------------0-----|
4|-0-------------|----------|--0-----|-2---|------0-----------------------0-------|
5|---------------|--0-------|--------|-----|--------------------------------------|
6|---------------|----------|--------|-----|-3---------------------3--------------|
fue  con  el  tiempo  a  bajar a cantando y rasgando las lunas al sol de popeyas.
 
1|---0s2-0-(0)---|----2-----|--------|-----|---------------(2)-2-------2-------2--|
2|---3---3-(3)---|------3---|------3-|-----|----3------3---(3)-----------3---3-3--|
3|---------(2)---|----------|----2---|---0-|--0------0-----(0)--------------0-----|
4|-0-------------|----------|--0-----|-2---|------0-----------------------0-------|
5|---------------|--0-------|--------|-----|--------------------------------------|
6|---------------|----------|--------|-----|-3---------------------3--------------|
Y arrojo leyendas como si sembrara,Maiz en semillas de tapas etapas eneras.
 
1|---0s2-0-(0)---|----2-----|--------|-----|---------------(2)-2-------2-------2--|
2|---3---3-(3)---|------3---|------3-|-----|----3------3---(3)-----------3---3-3--|
3|---------(2)---|----------|----2---|---0-|--0------0-----(0)--------------0-----|
4|-0-------------|----------|--0-----|-2---|------0-----------------------0-------|
5|---------------|--0-------|--------|-----|--------------------------------------|
6|---------------|----------|--------|-----|-3---------------------3--------------|
Midiendo proesas al cinto celeste de muerte a la vida de alivio a las pestes.
 
1|---0s2-0-(0)---|----2-----|--------|-----|---------------(2)-2-------2-------2--|
2|---3---3-(3)---|------3---|------3-|-----|----3------3---(3)-----------3---3-3--|
3|---------(2)---|----------|----2---|---0-|--0------0-----(0)--------------0-----|
4|-0-------------|----------|--0-----|-2---|------0-----------------------0-------|
5|---------------|--0-------|--------|-----|--------------------------------------|
6|---------------|----------|--------|-----|-3---------------------3--------------|
tu viste al hombre, tu viste a la muerte Miraste al tiempo, de cinto celeste.
 
1|---0s2-0-(0)---|----2-----|--------|-----|---------------(2)-2-------2-------2--|
2|---3---3-(3)---|------3---|------3-|-----|----3------3---(3)-----------3---3-3--|
3|---------(2)---|----------|----2---|---0-|--0------0-----(0)--------------0-----|
4|-0-------------|----------|--0-----|-2---|------0-----------------------0-------|
5|---------------|--0-------|--------|-----|--------------------------------------|
6|---------------|----------|--------|-----|-3---------------------3--------------|
Miraste,                                  miraste,
 
1|---0s2-0-(0)---|----2-----|--------|-----|---------------(2)-2-------2-------2--|
2|---3---3-(3)---|------3---|------3-|-----|----3------3---(3)-----------3---3-3--|
3|---------(2)---|----------|----2---|---0-|--0------0-----(0)--------------0-----|
4|-0-------------|----------|--0-----|-2---|------0-----------------------0-------|
5|---------------|--0-------|--------|-----|--------------------------------------|
6|---------------|----------|--------|-----|-3---------------------3--------------|
miraste
 
1|---0s2-0-(0)---|----2-----|--------|-----|---------------(2)-2-------2-------2--|
2|---3---3-(3)---|------3---|------3-|-----|----3------3---(3)-----------3---3-3--|
3|---------(2)---|----------|----2---|---0-|--0------0-----(0)--------------0-----|
4|-0-------------|----------|--0-----|-2---|------0-----------------------0-------|
5|---------------|--0-------|--------|-----|--------------------------------------|
6|---------------|----------|--------|-----|-3---------------------3--------------|
miraste           miraste            miraste           miraste 
 
1|---0s2-0-(0)---|----2-----|--------|-----|---------------(2)-2-------2-------2--|
2|---3---3-(3)---|------3---|------3-|-----|----3------3---(3)-----------3---3-3--|
3|---------(2)---|----------|----2---|---0-|--0------0-----(0)--------------0-----|
4|-0-------------|----------|--0-----|-2---|------0-----------------------0-------|
5|---------------|--0-------|--------|-----|--------------------------------------|
6|---------------|----------|--------|-----|-3---------------------3--------------|
miraste           miraste        miraste            miraste
 
1|---0s2-0-(0)---|----2-----|--------|-----|---------------(2)-2-------2-------2--|
2|---3---3-(3)---|------3---|------3-|-----|----3------3---(3)-----------3---3-3--|
3|---------(2)---|----------|----2---|---0-|--0------0-----(0)--------------0-----|
4|-0-------------|----------|--0-----|-2---|------0-----------------------0-------|
5|---------------|--0-------|--------|-----|--------------------------------------|
6|---------------|----------|--------|-----|-3---------------------3--------------|
+++++++++++++++++++++++++++++++++++++++++++++++++++++++++++++++++++++++++++++++++++
1|---0s2-0-(0)---|----2-----|--------|-----|---------------------------------------|
2|---3---3-(3)---|------3---|------3-|-----|------3------3------3--------3---------|
3|---------(2)---|----------|----2---|---0-|---0-------0------0-------0------------|
4|-0-------------|----------|--0-----|-2---|---------------------------------------|
5|---------------|--0-------|--------|-----|-3-------2------0--------------------0-|
6|---------------|----------|--------|-----|------------------------3-------0-h2---|
+++++++++++++++++++++++++++++++++++++++++++++++++++++++++++++++++++++++++++++++++++
1|---0s2-0-(0)---|----2-----|--------|-----|---------------(2)-2-------2-------2--|
2|---3---3-(3)---|------3---|------3-|-----|----3------3---(3)-----------3---3-3--|
3|---------(2)---|----------|----2---|---0-|--0------0-----(0)--------------0-----|
4|-0-------------|----------|--0-----|-2---|------0-----------------------0-------|
5|---------------|--0-------|--------|-----|--------------------------------------|
6|---------------|----------|--------|-----|-3---------------------3--------------|
+++++++++++++++++++++++++++++++++++++++++++++++++++++++++++++++++++++++++++++++++++
1|---0s2-0-(0)---|----2-----|--------|-----|---------------(2)-2-------2-------2--|
2|---3---3-(3)---|------3---|------3-|-----|----3------3---(3)-----------3---3-3--|
3|---------(2)---|----------|----2---|---0-|--0------0-----(0)--------------0-----|
4|-0-------------|----------|--0-----|-2---|------0-----------------------0-------|
5|---------------|--0-------|--------|-----|--------------------------------------|
6|---------------|----------|--------|-----|-3---------------------3--------------|
+++++++++++++++++++++++++++++++++++++++++++++++++++++++++++++++++++++++++++++++++++
1|---0s2-0-(0)---|----2-----|--------|-----|---------------(2)-2-------2-------2--|
2|---3---3-(3)---|------3---|------3-|-----|----3------3---(3)-----------3---3-3--|
3|---------(2)---|----------|----2---|---0-|--0------0-----(0)--------------0-----|
4|-0-------------|----------|--0-----|-2---|------0-----------------------0-------|
5|---------------|--0-------|--------|-----|--------------------------------------|
6|---------------|----------|--------|-----|-3---------------------3--------------|
+++++++++++++++++++++++++++++++++++++++++++++++++++++++++++++++++++++++++++++++++++
Fin:
1|---0s2-0-(0)---|----2-----|--------|-----|----------0-----2---------0------2----|
2|---3---3-(3)---|------3---|------3-|-----|----3---3--------------3-------3----3-|
3|---------(2)---|----------|----2---|---0-|--0---0------0-------2-------2--------|
4|-0-------------|----------|--0-----|-2---|--------------------------------------|
5|---------------|--0-------|--------|-----|-------------------0------------------|
6|---------------|----------|--------|-----|-3------------------------------------|
+++++++++++++++++++++++++++++++++++++++++++++++++++++++++++++++++++++++++++++++++++
1|------0----|----2-|
2|----3------|---3--|
3|---2-------|--2---|
4|-0---------|-0----|
5|-----------|------|
6|-----------|------|

            
            
Suggest correction
Creating personal tab
Creating personal tab
You can edit any tab online and save it as your Personal.

You can edit, replace or remove any tab part or add personal notes – all changes will be seen only by you.

Personal tabs can be accessed anytime from any device, even offline.
Learn more »
Give kudos to tab author, rate the tab!
1 2 3 4 5
comments
print report bad tab
guest
Wanna post a correction for this tab? Suggest correction