Oops, an error
Loading. Please wait.

Coincidir tab

version 6
version 6
434 views 1 this week
no commentswrite comment
1 2 3 4 5
3 more votes to show rating
add to favorites
×
Save as Personal and add changes to this tab that will be seen only by you. Learn more ›
×
You can save this tab as Personal to edit and correct it or add notes. All changes will be seen only by you. Learn more »
launch autoscroll
font size
0
reset
how to read this tab
guitar tuner
edit
Autoscroll
slow
fast
+/-
esc
set tempo
stop
Kp2 sta es correcion de la anterior k envie =P
me di cuenta k abia acordes k no iban o k kmbiaban
weno la neta la abia kagado jajaja, pero ia ahi sta
spero k sta ste bien y la puedan tokar (la cancion)
de abolon (rapido )SALUDOS a la Salle de Veracruz
y a toda la ena......!!!!!!!
Sta se la dediko a la Familia!!!!! y a la gente k kiero
muxo k ia saben kienes son....!!!!!!!!!!


COINCIDIR  (½ Tono Bajo)

PRE-INTRO

|------------3-------3h2-----2h0----|
|-o--------3-------3-------3-----o--|
|--------0-------0-------0----------|
|------0-------0-------0------------|
|-o------------------------------o--|
|----3------------------------------|

|----------0--|
|--------3----|
|------0------|
|----0--------|
|-------------|
|--3----------|

|----------0----|
|-o------3----o-|
|------0--------|
|----0----------|
|-o-----------o-|
|---------------|

INTRO

|------------------------0---2---3----3--2-2---3--3-2-0|
|-o--0---1---0---1---3------------------------3--------|
|------0---0---0---0---0---0---0---0---------2---2-----|
|-------------------------------------0-----0---0------|
|-o----------------------------------------------------|
|----3---------------3---------------------------------|

|-----3--------------0-3-3-----------------------------------3--------|
|----3----3--1p0-1-3-------3-3-----1-0-------3-1-0---------3------3-o-|
|---0----------------------------------2-0-2-------2-0---2------2-----|
|---------0--------------------------------------------0------0-------|
|--3----------------------------------------------------------------o-|
|-3----------------------3-----------------2--------------------------|


(Cuando se repite entra la 2nda guitarra)
|------------5-7-7-5-5-7p8h7-5-----------5-7-8-8/10------8-7-5---------|
|--5---5-7-8-------------------8-8-5-7-8------------8-8--------8-7-8br7|
|7---7-----------------------------------------------------------------|
|----------------------------------------------------------------------|
|----------------------------------------------------------------------|
|----------------------------------------------------------------------|

VERSO 1

Soy vecino de este mundo    por un rato
|------------3----------------3---------------3--------3h2------2h0-|
|----------3----------------3---------------3--------3--------3-----|
|--------0----------------0---------------0--------0--------0-------|
|------0----------------0---------------0--------0--------0---------|
|-------------------------------------------------------------------|
|----3----------------3---------------3-----------------------------|


Y  hoy coincide que también tu estas aquí
|----------------------------------------|
|-------------1----1-----1-------3-----3-|
|------------0----0-----0-------2-----0--|
|-----------2----0-----2-------0-----0---|
|----------3----2-----0------------------|
|-----------------------------2-----0----|


(1era guitarra)           (2nda guitarra)
|-3-2-0----------|        |-8-7-5-3-2-0---|
|-------3-1-0----|        |-8-7-5-3-3-0---|
|-------------2--|        |---------------|
|-------0--------|        |---------------|
|----------------|        |---------------|
|----------------|        |---------------|


Coincidencias tan extrañas de la vida
|--------------3----------------3-------------3--------3h2------2h0-|
|------------3----------------3-------------3--------3--------3-----|
|----------0----------------0-------------0--------0--------0-------|
|--------0----------------0-------------0--------0--------0---------|
|-------------------------------------------------------------------|
|------3----------------3-------------3-----------------------------|


Tantos siglos tantos mundos tanto espacio      y coincidir
|----------0------------0-------------0-------|
|---------1------------1-------------1------3-|
|--------0------------0-------------0------2--|
|-------2------------0-------------2----------|
|------3------------2-------------0-----------|
|---------------------------------------2-3---|


(1ERA GUITARRA)
|----------------------0---2---3----3--2-2---3----2--|
|--0---1---0---1---3------------------------3----3---|
|----0---0---0---0---0---0---0---0---------2----2----|
|-----------------------------------0-----0----0-----|
|----------------------------------------------------|
|--3---------------3---------------------------------|

(2NDA GUITARRA)
|-------------5-7-7--5-5--3-2-|
|---5---5-7-8-----------------|
|-7---7-----------------------|
|-----------------------------|
|-----------------------------|
|-----------------------------|


VERSO 2

SI   navego      con LA mente los espacios
|--------------3------------3-------------3h2------2h0------0h2-|
|------------3------------3-------------3--------3--------3-----|
|----------0------------0-------------0--------0--------0-------|
|--------0------------0-------------0--------0--------0---------|
|---------------------------------------------------------------|
|------3------------3-------------3-----------------------------|


O si quiero a mis ancestros retornar
|------------------------------------|
|---------1----1-----1-------3-----3-|
|--------0----0-----0-------2-----0--|
|-------2----0-----2-------0-----0---|
|------3----2-----0------------------|
|-------------------------2-----0----|


(1era guitarra)           (2nda guitarra)
|-3-2-0----------|        |-8-7-5-3-2-0---|
|-------3-1-0----|        |-8-7-5-3-3-0---|
|-------------2--|        |---------------|
|-------0--------|        |---------------|
|----------------|        |---------------|
|----------------|        |---------------|
   Agobiado       me detengo y no imagino
|--------------3--------------3-------------3--------3h2------2h0-|
|------------3--------------3-------------3--------3--------3-----|
|----------0--------------0-------------0--------0--------0-------|
|--------0--------------0-------------0--------0--------0---------|
|-----------------------------------------------------------------|
|------3--------------3-------------3-----------------------------|

tantos siglos tantos mundos tanto espacio    y coincidir
|----------0------------0-------------0-------|
|---------1------------1-------------1------3-|
|--------0------------0-------------0------2--|
|-------2------------0-------------2----------|
|------3------------2-------------0-----------|
|---------------------------------------2-3---|

INTRO

|------------------------0---2---3----3--2-2---3--3-2-0|
|-o--0---1---0---1---3------------------------3--------|
|------0---0---0---0---0---0---0---0---------2---2-----|
|-------------------------------------0-----0---0------|
|-o----------------------------------------------------|
|----3---------------3---------------------------------|

|-----3--------------0-3-3-----------------------------------3--------|
|----3----3--1p0-1-3-------3-3-----1-0-------3-1-0---------3------3-o-|
|---0----------------------------------2-0-2-------2-0---2------2-----|
|---------0--------------------------------------------0------0-------|
|--3----------------------------------------------------------------o-|
|-3----------------------3-----------------2--------------------------|


(2nda guitarra)
|------------5-7-7-5-5-7p8h7-5-----------5-7-8-8/10-----8-7-5---------|
|--5---5-7-8-------------------8-8-5-7-8------------8-8-------8-7-8br7|
|7---7----------------------------------------------------------------|
|---------------------------------------------------------------------|
|---------------------------------------------------------------------|
|---------------------------------------------------------------------|

VERSO 3

si en la noche me entretengo en las estrellas
|-----------------3--------------3-------------3--------3h2------2h0-|
|---------------3--------------3-------------3--------3--------3-----|
|-------------0--------------0-------------0--------0--------0-------|
|-----------0--------------0-------------0--------0--------0---------|
|--------------------------------------------------------------------|
|---------3--------------3-------------3-----------------------------|

Y capturo la que empieza     a florecer
|------------------------------------|
|---------1----1-----1-------3-----3-|
|--------0----0-----0-------2-----0--|
|-------2----0-----2-------0-----0---|
|------3----2-----0------------------|
|-------------------------2-----0----|

(1era guitarra)           (2nda guitarra)
|-3-2-0----------|        |-8-7-5-3-2-0---|
|-------3-1-0----|        |-8-7-5-3-3-0---|
|-------------2--|        |---------------|
|-------0--------|        |---------------|
|----------------|        |---------------|
|----------------|        |---------------|


la sostengo entre las manos más me alarma
|-----------------3--------------3-------------3--------3h2------0p2-|
|---------------3--------------3-------------3--------3--------3-----|
|-------------0--------------0-------------0--------0--------0-------|
|-----------0--------------0-------------0--------0--------0---------|
|--------------------------------------------------------------------|
|---------3--------------3-------------3-----------------------------|

tantos siglos tantos mundos tanto espacio    y coincidir
|----------0------------0-------------0-------|
|---------1------------1-------------1------3-|
|--------0------------0-------------0------2--|
|-------2------------0-------------2----------|
|------3------------2-------------0-----------|
|---------------------------------------2-3---|


(1era guitarra)
|----------------------0---2---3---|
|--0---1---0---1---3---------------|
|----0---0---0---0---0---0---0-----|
|----------------------------------|
|----------------------------------|
|--3---------------3---------------|

(2NDA GUITARRA)
|-------------5-7--|
|---5---5-7-8------|
|-7---7------------|
|------------------|
|------------------|
|------------------|


(E)
|--0---------0----------|
|--0---------0----------|
|--1-1-1p2h1-1-1-1p2h1--|
|--2---------2----------|
|--2---------2----------|
|--0---------0----------|

VERSO 4

       A                       E
si la vida se sostiene por instantes
|-------------------------------0---------0----------|
|-------------------------------0---------0----------|
|-------------------------------1-1-1p2h1-1-1-1p2h1--|
|-------------------------------2---------2----------|
|-------------------------------2---------2----------|
|-------------------------------0---------0----------|


y un instante es el momento de existir
|--------2--------2-----2---0---------0----0-----|
|--------3--------3-----3---0---------2----0-----|
|--------2--------2-----4---1---------2----1-----|
|--------0--------0-----4---2---------2----2-----|
|--------0--------4-----2---2---------0----2-----|
|--------0--------0-----2---0---------0----0-----|

(2NDA GUITARRA)
|-7/10-9-7-5-4-2-|
|-7/10-9-7-5-5-3-|
|----------------|
|----------------|
|----------------|
|----------------|


       A      (----PAUSA------)     E
si tu vida es otro instante no comprendo
|------O----------------------------0---------0----------|
|------2----------------------------0---------0----------|
|------2----------------------------1-1-1p2h1-1-1-1p2h1--|
|------2----------------------------2---------2----------|
|------0----------------------------2---------2----------|
|------0----------------------------0---------0----------|

         D                                              E     A
tantos siglos tantos mundos tanto espacio   y coincidiiiiiir
|--------2----2-----------2----------2------0--------|
|--------3---3-----------3----------3------0---------|
|--------2--2-----------2----------4------1----------|
|--------0-0-----------0----------4------2-----------|
|---------------------4----------2------2------------|
|----------------------------------------------------|


FINAL

(2NDA GUITARRA)
|---------------------------|
|-o------1----------1-----o-|
|------0----------0---------|
|---------------------------|
|-o--3------0-2h0-----0---o-|
|---------------------------|

|-----3----2----0--|
|----2----3----3---|
|---3----2----2----|
|--0----0----0-----|
|------------------|
|------------------|

(IERA GUITARRA)
|----------------------0---2-----------0--|
|--0---1---0---1---3-----------2---2---2--|
|----0---0---0---0---0---0-------2-----2--|
|--------------------------------------2--|
|-----------------------------------------|
|-----------------------------------------|

(2nda guitarra)
|-------------9-10-12-9----9-12--|
|-10-12-10-12-----------10---10--|
|--------------------------------|
|--------------------------------|
|--------------------------------|
|--------------------------------|

            
            
Suggest correction
Creating personal tab
Creating personal tab
You can edit any tab online and save it as your Personal.

You can edit, replace or remove any tab part or add personal notes – all changes will be seen only by you.

Personal tabs can be accessed anytime from any device, even offline.
Learn more »
Give kudos to tab author, rate the tab!
1 2 3 4 5
comments
print report bad tab
guest
Wanna post a correction for this tab? Suggest correction