Oops, an error
Loading. Please wait.

Cuento tab

version 3
version 3
19 views 1 this week
no commentswrite comment
1 2 3 4 5
3 more votes to show rating
add to favorites
×
Save as Personal and add changes to this tab that will be seen only by you. Learn more ›
×
You can save this tab as Personal to edit and correct it or add notes. All changes will be seen only by you. Learn more »
launch autoscroll
font size
0
reset
how to read this tab
guitar tuner
edit
Autoscroll
slow
fast
+/-
esc
set tempo
stop
al intro le falta algo, la eh checado y sip, tambien a 
una de las estrofas le falta un acorde, en la palabra, 
'que temblaron umectados', lleva un C/B, al igual que 
en la siguiente estrofa, será fácil de notar,pero eso 
ya esta solucionado, se la dedico a emiret, que aunque 
dice que está chistosa ero a mi la neta me gusta, esque 
a ella le encnatan las del maestro Delgadillo
esto dice asi

INTRO:
1 ---------------
2 -----3----3----
3 ---0-----------
4 -------0-------
5 ---------------
6 -3-------------

1 ---------------------3-------------------------3-----
2 -----3-----3-----3-----3-------2-----2-----2-----2---
3 ---0-----0-----0---0-----0---3-----3-----3---3-----3-
4 -------0-------------------------0-------------------
5 -----------------------------------------------------
6 -3-----------3-------------2-----------2-------------

1 ---------------------0-------------------------2-----
2 -----0-----0-----0-----0-------3-----3-----3-----3---
3 ---0-----0-----0---0-----0---4-----4-----4---4-----3-
4 -------2-------------------------4-------------------
5 ---------------------------2-----------2-------------
6 -0-----------0---------------------------------------

1 -------------------------------2-------2-
2 -----1-----1-----0h2---------3---3---3---
3 ---0-----0-----0-----2h0---2-------2-----
4 -------2-----------------0---------------
5 -3-----------3---------------------------
6 -----------------------------------------

(esto va a servir para acompletar la cancion)

riff 1  
1 ---------------------------------------------------
2 -----3-----3-----3-----0h1---------3-------3-------
3 ---0-----0-----0-----0-----0h2---2---2---2---2-----
4 -------0-----------0-------------------0-----------
5 ---------------------------------------------------
6 -3-----------3-----------------2-------------------
                    
1 -------------3---------------------------------2-----
2 -0h1-------------1---------1---------1-----3-----3---
3 -----0h2---0---0---0-----2---------0-----2---2-----2-
4 -----------------------2---------2-----0-------------
5 ---------3-----------0---------0---------------------
6 -----------------------------------------------------

riff 2

    LAm    SOL             RE/FA#          
1 -----------------3-------------2-------------2-----
2 -------1-----3-----3-------3-----3-------3-----2---
3 -----2-----0---0-----0---2---2-----2---2---2-----3-
4 ---2-----------------------------------------------
5 -0-------------------------------------------------
6 ---------3-------------2-------------2-------------

    MIm                       SIm  
1 --------------------0-------------------------2-----
2 -----0-----0----------0-------3-----3-----3-----3---
3 ---0-----0-----0--------0---4-----4-----4---4-----3-
4 -------2------------------------4-------------------
5 --------------------------2-----------2-------------
6 -0-----------0--------------------------------------

   DO           LAm             SOL            RE
1 ---------------------0-------------3-------------2-----
2 -----1-----1-----1-----1-------3-----3-------3-----3---
3 ---0-----0-----2---2-----2---0---0-----0---2---2-----2-
4 -------2---------------------------------0-------------
5 -3-----------0-----------------------------------------
6 ---------------------------3---------------------------


Riff 1

Nació una flor
Fragante y pura en el jardín del sol
Bajo sus pétalos rozados 
Que temblaron humectados
Al audaz suspiro del albor
                 (se repite el riff 1) 
O sensación que es florecer
                           
Y hablo la envidia de otra flor mayor

No dejes que te mire nunca el sol
           
riff 2

La estrella ufana ni el ardiente albor                        
Porque te debes a tu encierro                      
Y no hay ninguno digno de 
Aspirar tu encanto, tu candor
                                       riff 1
Así te digo pequeña flor.

Riff 1
Creció la flor
Y fue delicia del jardín del sol
Pero envainada en su capullo 
Por la duda y el orgullo
Que intentara abrir la vieja flor
O tentaciones 

Riff 1

la flor tembló
que sola y vana era la vida hasta hoy
No hay nada aparte de esa voz y yo
                       Riff 2
Si todo es malo porque nací flor
Porque soy triste y transparente
Porque zozobra mi razón  
                           DO
Porque oigo trinos tan risueños
      LAm          SOL            RE
Que ruboran mis empeños de guardarme
     SOL             RE/FA#
Virginal de sol, de sol.

    SOL               RE/FA#           MIm
Y entonces fue que el sol vertió en cascadas
      SIm          DO        SOL
La ternura y un calor enamorado
         MI7         LAm
En la caricia de su rayo
       RE               SOL
Tibia luz de un beso en mayo
        DO           SOL
Pero al mismo tiempo fue el secreto 
        DO        SOL
Que se cuenta despacito
    LAm         RE REsus4 RE REsus4 RE RE
Al oído de mi amor.

Riff 1

A ti mi flor         
Mi niña pura cálida canción          
Porque te quiero y los temores       
Que sembraron viejas flores
                   SOL
En tu pecho se perdieron
       RE/FA#      DO     RE     SOL
Poco a poco con cansada y triste voz
         DO         SOL
Porque invoco la ternura
         RE/FA#        SOL
Que se inventa con mi amor
         DO        SOL
Porque quiero florecer contigo
        RE/FA#          SOL-RE/FA#-MIm-MIm/RE-DO-RE-SOL
Siempre en el jardín del so-o-o-o-o-ol


ok espero y le entiendadn
aclaraciones o dudas, a mi correo
que se diviertan

            
            
Suggest correction
Creating personal tab
Creating personal tab
You can edit any tab online and save it as your Personal.

You can edit, replace or remove any tab part or add personal notes – all changes will be seen only by you.

Personal tabs can be accessed anytime from any device, even offline.
Learn more »
Give kudos to tab author, rate the tab!
1 2 3 4 5
comments
print report bad tab
guest
Wanna post a correction for this tab? Suggest correction