Oops, an error
Loading. Please wait.

Cuento tab

version 8
version 8
19 views 1 this week
no commentswrite comment
1 2 3 4 5
3 more votes to show rating
add to favorites
×
Save as Personal and add changes to this tab that will be seen only by you. Learn more ›
×
You can save this tab as Personal to edit and correct it or add notes. All changes will be seen only by you. Learn more »
launch autoscroll
font size
0
reset
how to read this tab
guitar tuner
edit
Autoscroll
slow
fast
+/-
esc
set tempo
stop
Espero que este bien esta transcripcion tratre de hacerla lo mejor,
se la dedico a una chica que considero sera para mi pequeña flor (haydeé)


Intro:

e--------------------------------------2-------------------2-------------|
b------3---3-----3---3-----3---3-----3---3-----3---3-----3---3-----------|
g--------0---------0---------2-------------------2-----------------------|
d---0----------0---------0---------0---------2---------2-----------------|
a------------------------------------------------------------------------|
e--3----------3---------2---------2---------0---------0------------------|

e--------------------2----------3----------------------------------------|
b-------3---3------3---3------1---1-----0---1h0--------3---3-----3---3---|
g---------4-------------------------------------2h0----------------0-----|
d----4----------4----------2----------2---0--------------0-----0---------|
a---2----------2----------3----------------------------------------------|
e----------------------------------------------------3--------3----------|

e----------------------------------------------------3-------3-----------|
b------3---3-----1h0--------3---3------3----1h0----------1--1-----1h0----|
g--------0-----------2h0-------------2---------2h0---------------0--2h0-0|
d----0---------0--------------0-----------0------------2--------2--------|
a--------------------------------------------------3-------3---3---------|
e---3---------------------2--------2-------------------------------------|

e------------------------------------------------------------------------|
b-----3---3------3---3-----3---3----1h0---------3---3------3----1h0------|
g------------------0---------0----------2h0--------------2----------2h0--|
d-------0-----0----------0--------0---------------0-----------0----------|
a------------------------------------------------------------------------|
e---3--------3----------3---------------------2--------2-----------------|

e-----3---------3--------------------3----------3----|
b---------1----1-----1h0-----------3---3------3---3--|
g-------------------0----2h0-0-----------------------|
d-------2----------2------------0----------0---------|
a---3--------3----3----------------------------------|
e------------------------------3----------3----------|

Versos:
e------------------------------------------------------------------------|
b-----3---3------3-----1h0---------3---3--------3----1h0-----------------|
g--------------0-----------2h0----------------2----------2h0-------------|
d-------0------------0---------------0-------------0---------------------|
a------------------------------------------------------------------------|
e---3--------3-------------------2----------2----------------------------|
Naciounaflor fraganteypuraeneljardindelsol  bajosuspétalosrosados
e---------3---3-----------3----------------------------------------------|
b-------1-------1-------1--------1------3----3------3---3-------3---3----|
g-----------0------------------0----------------------0-----------0------|
d-----2---------------2------2-------------0-----0-----------0-----------|
a---3---------------3------3---------------------------------------------|
e-------------------------------------3---------3-----------3------------|
  Quetemblaronhumectadosalaudazsuspirodelalbor osensación queesflorecer
e--------------------------------------------------------------3---3-----|
b-----3---3------3-----1h0---------3---3--------3----1h0-----------------|
g--------------0-----------2h0----------------2----------2h0-------------|
d-------0------------0---------------0-------------0-------------2-------|
a-------------------------------------------------------------3----------|
e---3--------3-------------------2----------2----------------------------|
          Yhablolaenvidiadeotraflormayor  nodejesquetemirenuncaelsol
Versos 2.
e--------3---3-----------------------------------3h0---0--|
b----------1-------1---1-------------1------3-------3---3-|
g-------0-----------------------------0-------2------2----|
d--------------------2------------------------------------|
a-----3-----------3----------------3----------------------|
e-----------------------------------------2---------------|
Laestrellaufananielardientealbor Porquetedebesatuencierro

e------------------3h0---0----------------------------------------------|
b-------3-----1-------1---1-------1---1-------3---3------3---3----3---3-|
g--------2------0------0------------0-----------2-------------------0---|
D------------------------------2-----------0---------------0----0-------|
A-----------3-----------------3-----------------------------------------|
E-----2-----------------------------------2------------3-------3--------|
  Ynohayningunodignode      Aspirartuencanto,tucandor  asítedigo,

e------------------------------------------------------------------|
b--------3---3-----------3----1h0--------3---3-------3---1h0-------|
g----------0-----------0----------2h0--------------2---------2h0---|
D------0--------------------0--------------0------------0----------|
A------------------------------------------------------------------|
E-----3--------------3-----------------2---------2-----------------|
   Pequeñaflor.

e------3-----------3-----------------------3-----------3------|
b----------1-----1-------1h0-------------3---3-------3---3----|
g-----------------------0----2h0--0---------------------------|
D--------2-------------2---------------0-----------0----------|
A----3---------3------3---------------------------------------|
E-------------------------------------3-----------3-----------|


e------------------------------------------------------------------------|
b-----3---3------3-----1h0---------3---3--------3----1h0-----------------|
g--------------0-----------2h0----------------2----------2h0-------------|
d-------0------------0---------------0-------------0---------------------|
a------------------------------------------------------------------------|
e---3--------3-------------------2----------2----------------------------|
Creciólaflor Yfuedeliciadeljardíndelsol  Peroenvainadaensucapullo


e---------3---3-----------3----------------------------------------------|
b-------1-------1-------1--------1------3----3------3---3-------3---3----|
g-----------0------------------0----------------------0-----------0------|
d-----2---------------2------2-------------0-----0-----------0-----------|
a---3---------------3------3---------------------------------------------|
e-------------------------------------3---------3-----------3------------|
PorladudayelorgulloQueintentaraabrirlaviejaflor Otentaciones laflortembló

e--------------------------------------------------------------3---3-----|
b-----3---3------3-----1h0---------3---3--------3----1h0-----------------|
g--------------0-----------2h0----------------2----------2h0-------------|
d-------0------------0---------------0-------------0-------------2-------|
a-------------------------------------------------------------3----------|
e---3--------3-------------------2----------2----------------------------|
  Quesolayvanaeralavidahastahoy  Nohaynadaapartedeesavozyyo

e--------3---3-----------------------------------3h0---0--|
b----------1-------1---1-------------1------3-------3---3-|
g-------0-----------------------------0-------2------2----|
d--------------------2------------------------------------|
a-----3-----------3----------------3----------------------|
e-----------------------------------------2---------------|
Sitodoesmaloporquenacíflor    Porquesoytristeytransparente

e------------------3h0---0------------------------------------------------|
b-------3-----1-------1---1-------1---1-------3---3------3---3----3---3---|
g--------2------0------0------------0-----------2-------------------0-----|
D------------------------------2-----------0---------------0----0---------|
A-----------3-----------------3-------------------------------------------|
E-----2-----------------------------------2------------3-------3----------|
Porquezozobramirazón        PorqueoigotrinostanrisueñosQueruboranmisempeños
deguardarme.

las partes de acordes las mando como las de Baco

     SOL             RE/FA#
Virginal de sol, de sol.

    SOL               RE/FA#           MIm
Y entonces fue que el sol vertió en cascadas
      SIm          DO        SOL
La ternura y un calor enamorado
         MI7         LAm
En la caricia de su rayo
       RE               SOL
Tibia luz de un beso en mayo
        DO           SOL
Pero al mismo tiempo fue el secreto
        DO        SOL
Que se cuenta despacito
    LAm         RE-REsus4-RE-REsus4-RE
Al oído de mi amor.

A ti mi flor-------------------------|
Mi niña pura cálida canción----------|    |aquí se toca como vesos 1|
Porque te quiero y los temores-------|
Que sembraron viejas flores----------|
                   SOL
En tu pecho se perdieron
       RE/FA#      DO     RE     SOL
Poco a poco con cansada y triste voz
         DO         SOL
Porque invoco la ternura
         RE/FA#        SOL
Que se inventa con mi amor
         DO        SOL
Porque quiero florecer contigo
        RE/FA#          SOL-RE/FA#-MIm-MIm/RE-DO-RE-SOL
Siempre en el jardín del sol.

            
            
Suggest correction
Creating personal tab
Creating personal tab
You can edit any tab online and save it as your Personal.

You can edit, replace or remove any tab part or add personal notes – all changes will be seen only by you.

Personal tabs can be accessed anytime from any device, even offline.
Learn more »
Give kudos to tab author, rate the tab!
1 2 3 4 5
comments
print report bad tab
guest
Wanna post a correction for this tab? Suggest correction