Oops, an error
Loading. Please wait.

Despierta Al Intersticio tab

version 2
version 2

Whole song

7 views 1 this week
no commentswrite comment
1 2 3 4 5
3 more votes to show rating
add to favorites
×
Save as Personal and add changes to this tab that will be seen only by you. Learn more ›
×
You can save this tab as Personal to edit and correct it or add notes. All changes will be seen only by you. Learn more »
launch autoscroll
font size
0
reset
how to read this tab
guitar tuner
edit
Autoscroll
slow
fast
+/-
esc
set tempo
stop
Esta Canción lleva capo en el segundo traste ensáyenla un chorro y verán que si sale...
también le dedico mi trascripción a Lorena que la Quiero Mucho..

      C         G        Am     C   E7   F           G    C
e-0------------------------------0--------------------------------------
B---3--1---1------3----1---1-------0-3----2---2-------3----1------------
G--------0------0---0----2---2---------0----3---3---0---0---------------
D-----------------------------------------------------------------------
A------3---------------0---------3---2---------------------3------------
E-------------3---------------------------2-------3---------------------
    D7               G             Am       C  E7    F          G   C
e-0h2h0--------------3----------------------0--------------------------
B-------0h1h0----------0------3----1---1------0-3----2---2-----3----1--
G-------------0h2h0---------0---0----2---2--------0----3---3--0--0-----
D----------------------------------------------------------------------
A--------------------3-------------0--------3---2-------------------3--
E-------------------------3--------------------------2-------3---------

E-0---|X|---------------------------------------------
B---1-|3|------------------------------------------------
G-----|2|----------------------------------------------
D-----|0|-----------------------------------------------
A-----|1|--------------------------------------------
E-----|0|-------------------------------------------------
      **(este C va rasgado lo demás es arpegiado)


 **      G                Am
Me desperte entre sus cabellos
     C7           F             G
respirándome sus sueños y a dos palmos
        C           G   RIFF 1
de escuchar su corazón,
           G          Am
tendí un momento la mirada
          C7         F
sobre el vuelo de su falda
        G           C        G
que permaneció olvidándose mejor.

Am      C7           F
En la penumbra se animaba
        E7           Am
alguna imagen de una cama
         C7           F
donde un rostro se asomaba
           E7           Am   C7 F
y se encontró a continuación
          G            C  RIFF2
que deperté junto al amor
F        G         C
vestido para la ocasió

     C             G
Despierta al intersticio
      Am      D7  G
bienvenida a amanecer
       F            G
que el reloj anda a tiempo
  C    E7     Am
camino de las seis
 F             G         C
acercate que estamos esperando.

              C      Em           Am
Vuelo a acariciar y vuelo a acariciar
 D7    G              F            G     
ojos y faz, me encamine en las comisuras
       Am
de sus labios
        C            G
bajo mi beso arde su piel
          Am       D7  G
y al explorar su intimidad
        F            G     E7     Am
y es su voz y me apresuran sus desmayos.
  C            Em
Enlazame a tu piel,amor
   Dm           C        F   G  C
conduceme hasta la felicidad ah ah 
            G           Am
recibeme y abrazame con fuerza
         C7          F
que esta dicha tan inmensa
         G           C
me ha llevado mas alla
           G
de donde estoy,RIFF1
C         G            Am
donde hay luz sobre su cara
      C7         F
sobre de su risa clara
         G         C              G
haciendo de cada detalle una intención,
Am        C7        F
por la ventana se colaba el viento,
    E7          Am
el cielo y la mañana
     C7        F
y la luz anaranjada
          E7            Am
el sol clamaba en el jardín,
F       G              C
la primavera era un festín,RIFF2
F        G          C
flores y besos para 
   C                G
Despierta al  intersticio
      Am      D7  G
bienvenida a amanecer
       F              G
que el cielo está tan claro
      C         E7        Am
ya el sol se ha puesto en pie
 F     D7        G         C
arriba ven que estamos esperando.(al final se pone un RIFF3 y terminas con un C)

RIFF 1

e--------|
B--------|
G--------|
D-----2-3|
A---0----|
E-3------|


RIFF2

e-3-1-0-----|
B-0-0-0-3-1-|
G-------0-0-|
D-----------|
A-----------|
E-----------|

RIFF3
e-0h2h0------------|
B------0h1h0------|
G------------0h2h0|
D-----------------|
A-----------------|
E-----------------|(escuchen la canción para que vean la velocidad)

Adiós.
Si tienen dudas o quieren una canción en especial escríbanme a wesborland_02@

            
            
Suggest correction
Creating personal tab
Creating personal tab
You can edit any tab online and save it as your Personal.

You can edit, replace or remove any tab part or add personal notes – all changes will be seen only by you.

Personal tabs can be accessed anytime from any device, even offline.
Learn more »
Give kudos to tab author, rate the tab!
1 2 3 4 5
comments
print report bad tab
guest
Wanna post a correction for this tab? Suggest correction