Oops, an error
Loading. Please wait.

El Deseo De Clara tab

version 1
version 1

Whole song

19 views 1 this week
no commentswrite comment
1 2 3 4 5
3 more votes to show rating
add to favorites
×
Save as Personal and add changes to this tab that will be seen only by you. Learn more ›
×
You can save this tab as Personal to edit and correct it or add notes. All changes will be seen only by you. Learn more »
launch autoscroll
font size
0
reset
how to read this tab
guitar tuner
edit
Autoscroll
slow
fast
+/-
esc
set tempo
stop
esta rola ta bien dificil de sacar (bien); y la verdad me dió mucha hueva sacarla
y más me da de solo pensar que pronto tendré el tab completo.
por el momento es todo.

Quiero dedicar esta canción a todas las 'claras' que como clara cumplen sus 30
sin salir de la casa de sus papás:

 Intro:

1|---------|----------|---------|
2|-----0h1-|-----1-0--|-----0---|
3|-0h2-----|----------|-------2-|
4|---------|-2-0------|-0-------|
5|---------|----------|---3-----|
6|---------|----------|---------|

|---------|---------|-------------------------|
|---------|---------|-----------------------3-|
|-----2-0-|-----0---|-----------------------2-|
|---------|-------4-|-----4-2-----2-1-----4---|
|-3-2-----|-2-0-----|-0---------------1-2-----|
|---------|---------|---3-----3-2-------------|

|--------------------|-------------------------|---0(12)--0(7)-0(5)----|
|---------------1--4-|-4h5---------------------|---0(12)-------0(5)----|
|---------0-2-4------|-----3h4-----------------|-----------------------|
|---1-2-4------------|---------4h5-1h2---------|-----------------------|
|-2------------------|-----------------1h2-----|-----------------------|
|--------------------|---------------------2h3-|-0---------------------|

|-----2p0--------------------|-------2p0------------|---------------------|
|---------0---3-------3------|-----------0---3----3-|-------------3--3----|
|-----------0-----0-------0--|-------------0----0---|-------2---2------2--|
|----------------------------|-0---0----------------|---------0-----------|
|---2------------------------|---0------------------|-0h1-2---------------|
|-0--------------------------|----------------------|---------------------|

|----------2-----|-------2----------2p0-------|---------------------0-------|
|-3----3-------3-|---3-------3----------0---3-|---1-0-1---------0h1---1-----|
|--------0---0---|-----0---0------0-------0---|-------------2-2---------2---|
|----------------|-2--------------------------|-0---------2-----------------|
|----------------|----------------------------|---------0-------------------|
|---0------------|-------------0--------------|-----------------------------|

|-------------------|---------2-----------2-----|-----2------------3--|
|-------------3-3---|-3---3-------3---3-------3-|---3-----3--------4--|
|-------2---2-----2-|-------0---0-------0---0---|-------0---0---------|
|---------0---------|---------------------------|----------------4-4--|
|-0h1-2-------------|---------------0-----------|--------------2------|
|-------------------|---0-----------------------|-0-------------------|

 h   - hammer-on
 p   - pull-off
n(n) - tapped harmonic
---------------------------------------

Am                     D
Clara cumplió sus treinta años
             G                C
sin salir de la casa de sus papás
Am                   B
en el jardín y en su cuarto
              Em               E11/Ab
todo tenía un tono de su intimidad
Am              D    G                 C
nunca tuvo mas amiga que su sed de conocer
Am                Am/G
y los días se sucedían monótonos
F#m                      B
hasta que él vino a aparecer

Am              D
Clara no lo conocía
           G                C
nunca le miró rondando por ahí
Am               B
simplemente apareció
                  Em                  E11/Ab
cuando llamó a la puerta preguntando así
Am                    D
'¿Linda no está Doña Aurora?
G                     C
¡oiga!, la podría esperar?'
Am                 Am/G
era un sobrino del pueblo
F#m                         Em    Am   Em B
y ella sin pensarlo lo dejó pasar

B                 Em
Y abrió con el portón
       B                  Em
su corazón y mientras esperaban
         B7                Am
ella empezó mostrándole la casa
            D               G
buscando un tema para conversar 
B                 Em            B
lo sentó en un sillón y le observó
              Em
y a veces escuchaba
       D                 Am
el natural sonido de esa charla
            F#m             Em
en que se dejaba oír la soledad.

Em Em/maj7 Em7 C C C/B Bb B
Em Em/maj7 Em7 C# C F#m B

Am                 D
Mientras pasaba la tarde
            G                  C
seguían esperando a la Doña llegar
Am                 B
con seguridad se habría quedado
Em                            E11/Ab
con su esposo allá en el hospital
Am                     D
'Don Samuel seguiría enfermo'
G                    C
tardaban tanto en volver
Am                    Am/G
que ella le mostró su patio
               F#m
su jardín, sus flores
               B
y él los quiso ver.

Am                D
Clara le contó de cosas
               G                   C
que entre la familia tuvo que esconder
Am              B
su papá se imaginaba gente
      Em                 E11/Ab
de la casa que habla con él

Am                     D
Cuando al fin calló la noche
G                C
y la tía no apareció,
Am                Am/G
ella le mostró su cuarto
           F#m         B      Em Am Em B
y él interesado en este se quedó

B            Em          B
Él se paró detrás y comenzó
                Em
besándola en el cuello
           B7                Am
mientras ella se desató en silencio
          D                G
el largo atuendo de su soledad
               Em
se dijeron los dos cosas
    B               Em
que solo dicen los amantes
          B                      Am
frases privadas que tan hoy como antes
         F#m            Em
tan sólo se debieran murmurar
                Am             D
y ella se le rindió a la media noche
                 G
y el cobró el trofeo
        C                  F#m
y le contó que sólo era el deseo
           B                Am  D  G C Am B Em E11/Ab
y que había sido invitado a pasar

Am               D
Para cuando amanecía alguien llamó
     G                  C
a la puerta de la habitación
Am                   B
él se cubrió con las mantas
                Em                    E11/Ab
y ella abrió la puerta que da al corredor
Am                   D
su mamá y su padre enfermo
     G                   C
le hallaron desnuda y de pie
Am                Am/G
estaba sola en su cuarto
F#m                             B
se estará enfermando Clarita también

B               Em
Clara se estremeció
            B                     Em
cuando ella le llamó pero él no estaba
        B7                 Am
ni su calor ni su aroma ni nada
          D                   G
nunca se oyó más sin razón su voz
                Am
pensaría que se fue
         D                  G
se fue como los sueños de mañana
          C                     F#m
cuando la luz se cuela en la ventana
        B                     Am   D  G  C  Am  B  Em
y nos haría pensar que no ocurrió

-------------------------------------------------------
namas oigan la rola y vean los tiempos y todo ese rollo y... TOQUENLA.
ta muy chida la rolita a ver si fer edita en el nuevo disco.

Esperen mas canciones por mi parte, se cuidan.

        EADGBe
E11/Ab  400450
Em/maj7 021000
Em7     020000

****************************************************************************************
* Generado usando Power Tab Editor por Brad Larsen -  *
****************************************************************************************

            
            
Suggest correction
Creating personal tab
Creating personal tab
You can edit any tab online and save it as your Personal.

You can edit, replace or remove any tab part or add personal notes – all changes will be seen only by you.

Personal tabs can be accessed anytime from any device, even offline.
Learn more »
Give kudos to tab author, rate the tab!
1 2 3 4 5
comments
print report bad tab
guest
Wanna post a correction for this tab? Suggest correction