Oops, an error
Loading. Please wait.

Ensayo De Una Boca tab

version 6
version 6
67 views 1 this week
no commentswrite comment
1 2 3 4 5
3 more votes to show rating
add to favorites
×
Save as Personal and add changes to this tab that will be seen only by you. Learn more ›
×
You can save this tab as Personal to edit and correct it or add notes. All changes will be seen only by you. Learn more »
launch autoscroll
font size
0
reset
how to read this tab
guitar tuner
edit
Autoscroll
slow
fast
+/-
esc
set tempo
stop
Hola, pues aquí les comparto esta tablatura, intente mas que nada dar
los acordes mas fieles a como los toca F.D. y con los arreglos en cada una
de las partes aunque es un poco difícil transcribir esta canción muy
fielmente, espero que les guste, oigan la canción para encontrarle el
ritmo. Saludos.

Nota: Seria bueno tocar las figuras (Fig. X) teniendo en cuenta el tono
      que les precede, pues son como adornos a los acordes.


Intro:

      D       A                        Bm   Bm/A       G
e|------2p0------------------0---------------------------------------
B|----3-3-----0h2p0-----0h2h3-------3----3--------3----3--2h3p2p0----
G|----2-------2-----2--2-----------4----4--4-----0-0------------2p0--
D|----0-------------------------------2------------0-----------------
A|----------0--------0-----------2-------0---------------------------
E|----------------------------------------------3--------------------

D/F#               Em              G                 Bm    A         D
----------------0--0^---0-2-3-2-0----------------0----2------------0--2--|
--3-----------3------0-----------3-0h3p0-------3---3---3--------2h3---3--|
----2-------2---------0----------------------0----------4-------2-----2--|
--------0-4--------2^----------------------0------------------2-------0--|
-------------------2^---------------------------------2-----0------------|
--2----2-----------0^--------------3-------------------------------------|

Intro (2 veces)

D            Asus
La boca de mi amada
    Asus*           G
es jardin de cerezos,
                  Dsus-D (transicion con un pull-off)
es fuente de agua pura
                      Asus
y el cuenco en donde abrevo
 A-Aadd9 (Fig. 1)C(Fig. 2) C#*
y acrecenta mis ansias.


D               Asus
Sus labios son renuevos
               Bm
y sus dientes azucar
      (Fig. 3)       G Dsus/F# Em7
y es perfume su aliento,
A7sus                D
y es perfume su aliento.


D-Dsus2 A7sus4        (Fig. 4)
remanso inagotable es su voz mientras
  G                          Bm
discurre, me arrulla y me alimenta,
    A7sus4
me acuna y da consuelo.

      D    A                  C9             G     A7sus          D
e|------2p0---------------------0---0-3-2-0--0----------0h2p0-----------|
B|----3-3-----0h2p0-----0h2h3--3---3-----------3-------3-----3----2-----|
G|----2-------2-----2--2------------------------------0-------0---3-----|
D|----0----------------------------------------------2------------0-----|
A|----------0--------0---------3--3-----------------0-------------------|
E|-------------------------------------------3--------------------------|

D              Asus4
Su risa es transparente
                  Bm
como el fuego del viento.
         (Fig. 3)G
Me colma cuando rie
                  Dsus2/F#
y cuando se va sonriendo,
 (Fig. 5)           A7sus4
cuando sonrie por nada y
   A Aadd9      Bm
cuando por nada vuelvo
    (Fig. 3)      G Dsus2/F# Em7
a invitarle a que sonria.
        A7sus4
Su risa cristalina es mi
              Bm
dicha y es mi premio.

   F#m7     G         Bm    A7sus4    D
--2------2---3----0---2------------0--2--||
--------2---3----3-3---3--------2/3---3--||
-------2--------0-------4-------2-----2--||
------2--------0---------4----2-------0--||
----------------------2-----0------------||
--2---------3----------------------------||

D              Asus4
Y si su boca acusa
        (Fig. 1) C (Fig. 2)
un suspiro de su pecho,
                     G
me envuelve y me aprisiona,
                     Bb
me halaga y mas me apresta
                     F
a reconfortar sus manos,
    A7(Fig. 6)  Dsus-D
sus labios y su cuello,
D-Dsus2         Em7
su vientre de paloma
(Fig. 7)        G(Fig. 8)
y su delicado vuelo
               Bm     A7
y a modo de su boca,
A7*             Dsus D
es mi boca deseo.
             Dsus/C
Su boca es la ventana,
            Dsus/B
su boca es su secreto;
              Dsus/Bb
es la cancion del agua
                  G
y es lenguaje del alma
    Dsus2/F#      Em7
y es el amor y el tiempo
    Esus2/G#   A-Aadd9  C#* C#**
su boca bien amada.


Dsus D         Em7
La boca de mi amada
(Fig. 4)      G(Fig. 8)
es jardin de cerezos,
              Bm
es huerto de naranjos,
 A7sus4       D-Dsus
de limones y almendros.
                C9
Es sombra y es frescura
               Cep
en el molde mas perfecto y
               Bm A7sus4 G
mi mas caro tesoro,
Dsus2/F#           Em7
porque hoy me lo da todo
A7sus4          D
si me regala un beso.

outro:
   D            Em7              G               Bm     A7sus4
e|-------2p0------2-2h3p2-0-------------------0--2----------0^-----
B|-----3-----3--3-----------3----0h3p0------3------3-------3^--3---
G|---2----------0----------------0----0---0----------4----0^-----0-
D|-0------------------------------------0----------------2^--------
A|--------------2--------------------------------2------0^---------
E|--------------0----------------3---------------------------------

   D            Em7              G               Bm     A7sus4
e|------2p0-----0-0-2-3-3p2p0-----------------0--2-------3^----3^--
B|-3--3-----3-----------------3--0h3p0------3------3-----3^----3^--
G|-2---------2-------------------0----0---0----------4---0^----0^--
D|-0------------------------------------0----------------2^----2^--
A|-----------------------------------------------2------0^----0^---
E|--------------0----------------3---------------------------------


e|-2--2----0----0-2-2h3p2-0-------------------0-----------0---0----
B|-3--3----3-3--3-----------3----0h3p0------3----3--------2/3---3--
G|-2-------2-2--0----------------0----0---0--------4------2--------
D|-0----0--0----------------------------0------------4----2--------
A|-----------------------------------------------2------0----------
E|--------------0----------------3---------------------------------


e|----------------------------------------------------------------|
B|--3---3---3---3---3---3---3---3---3---3---3---3---3---3---3---3-|
G|--0---0---0---2---2---2---0---0---0---2---2---2---0---0---0---2-|
D|----0---0---0---0---0---0---0---0---0---0---0---0---0---0---0---|
A|----------------------------------------------------------------|
E|--3---------------3-----------3-------3-----------3-----------3-|


********************************************
Fig. 1

A|--0h2h3---

********************************************
Fig.2

B|--0h2p0-----
G|--------0h2-

********************************************
Fig. 3
e|-----------
B|----3------
G|---4----4--
D|--4----4---
A|------0----
E|-----------

********************************************
Fig. 4

e|--2-3-2----
B|--------3--

********************************************
Fig. 5

e|----------0--
B|--------2----
G|------3------
D|--0-4--------

********************************************
Fig. 6

e|---3-0-----

********************************************
Fig. 7

e|---2--2h3p2p0----
B|--------------3--

********************************************
Fig. 8

B|----0h3p0------
G|---------0-----

Acordes:
             EADGBe
C            032010
C9           032030
C#*          045050
C#**         045055
Cep          042050
D            000232
Dsus         000233
Dsus/F#      200233
Dsus2        000230
Dsus2/F#     200230
Dsus/C       030233
Dsus/B       020233
Dsus/Bb      010233
Em7          022030
F            133211
G            320033
Asus*        002233
A7           002020
Asus         002230
A            002220
Aadd9        002200
Bm           224432
Bm/A         x04432
Bb           112221

            
            
Suggest correction
Creating personal tab
Creating personal tab
You can edit any tab online and save it as your Personal.

You can edit, replace or remove any tab part or add personal notes – all changes will be seen only by you.

Personal tabs can be accessed anytime from any device, even offline.
Learn more »
Give kudos to tab author, rate the tab!
1 2 3 4 5
comments
print report bad tab
guest
Wanna post a correction for this tab? Suggest correction